  0
SECTION
  2
HEADER
  9
$ACADVER
  1
AC1021
  9
$ACADMAINTVER
 70
    50
  9
$DWGCODEPAGE
  3
ANSI_1252
  9
$INSBASE
 10
0.0
 20
0.0
 30
0.0
  9
$EXTMIN
 10
896.5025939941405
 20
430.1717834472655
 30
-0.0000000000032599
  9
$EXTMAX
 10
920.5025939941405
 20
432.3059686650488
 30
4.000000119209288
  9
$LIMMIN
 10
0.0
 20
0.0
  9
$LIMMAX
 10
12.0
 20
9.0
  9
$ORTHOMODE
 70
     0
  9
$REGENMODE
 70
     1
  9
$FILLMODE
 70
     1
  9
$QTEXTMODE
 70
     0
  9
$MIRRTEXT
 70
     0
  9
$LTSCALE
 40
8.0
  9
$ATTMODE
 70
     1
  9
$TEXTSIZE
 40
0.2
  9
$TRACEWID
 40
0.05
  9
$TEXTSTYLE
  7
Standard
  9
$CLAYER
  8
0
  9
$CELTYPE
  6
ByLayer
  9
$CECOLOR
 62
   256
  9
$CELTSCALE
 40
1.0
  9
$DISPSILH
 70
     0
  9
$DIMSCALE
 40
1.0
  9
$DIMASZ
 40
0.18
  9
$DIMEXO
 40
0.0625
  9
$DIMDLI
 40
0.38
  9
$DIMRND
 40
0.0
  9
$DIMDLE
 40
0.0
  9
$DIMEXE
 40
0.18
  9
$DIMTP
 40
0.0
  9
$DIMTM
 40
0.0
  9
$DIMTXT
 40
0.18
  9
$DIMCEN
 40
0.09
  9
$DIMTSZ
 40
0.0
  9
$DIMTOL
 70
     0
  9
$DIMLIM
 70
     0
  9
$DIMTIH
 70
     1
  9
$DIMTOH
 70
     1
  9
$DIMSE1
 70
     0
  9
$DIMSE2
 70
     0
  9
$DIMTAD
 70
     0
  9
$DIMZIN
 70
     0
  9
$DIMBLK
  1

  9
$DIMASO
 70
     1
  9
$DIMSHO
 70
     1
  9
$DIMPOST
  1

  9
$DIMAPOST
  1

  9
$DIMALT
 70
     0
  9
$DIMALTD
 70
     2
  9
$DIMALTF
 40
25.4
  9
$DIMLFAC
 40
1.0
  9
$DIMTOFL
 70
     0
  9
$DIMTVP
 40
0.0
  9
$DIMTIX
 70
     0
  9
$DIMSOXD
 70
     0
  9
$DIMSAH
 70
     0
  9
$DIMBLK1
  1

  9
$DIMBLK2
  1

  9
$DIMSTYLE
  2
Standard
  9
$DIMCLRD
 70
     0
  9
$DIMCLRE
 70
     0
  9
$DIMCLRT
 70
     0
  9
$DIMTFAC
 40
1.0
  9
$DIMGAP
 40
0.09
  9
$DIMJUST
 70
     0
  9
$DIMSD1
 70
     0
  9
$DIMSD2
 70
     0
  9
$DIMTOLJ
 70
     1
  9
$DIMTZIN
 70
     0
  9
$DIMALTZ
 70
     0
  9
$DIMALTTZ
 70
     0
  9
$DIMUPT
 70
     0
  9
$DIMDEC
 70
     4
  9
$DIMTDEC
 70
     4
  9
$DIMALTU
 70
     4
  9
$DIMALTTD
 70
     2
  9
$DIMTXSTY
  7
Standard
  9
$DIMAUNIT
 70
     0
  9
$DIMADEC
 70
     0
  9
$DIMALTRND
 40
0.0
  9
$DIMAZIN
 70
     0
  9
$DIMDSEP
 70
    46
  9
$DIMATFIT
 70
     3
  9
$DIMFRAC
 70
     0
  9
$DIMLDRBLK
  1

  9
$DIMLUNIT
 70
     4
  9
$DIMLWD
 70
    -2
  9
$DIMLWE
 70
    -2
  9
$DIMTMOVE
 70
     0
  9
$DIMFXL
 40
1.0
  9
$DIMFXLON
 70
     0
  9
$DIMJOGANG
 40
0.7853981633974483
  9
$DIMTFILL
 70
     0
  9
$DIMTFILLCLR
 70
     0
  9
$DIMARCSYM
 70
     0
  9
$DIMLTYPE
  6

  9
$DIMLTEX1
  6

  9
$DIMLTEX2
  6

  9
$LUNITS
 70
     4
  9
$LUPREC
 70
     4
  9
$SKETCHINC
 40
0.1
  9
$FILLETRAD
 40
0.0
  9
$AUNITS
 70
     0
  9
$AUPREC
 70
     0
  9
$MENU
  1
.
  9
$ELEVATION
 40
0.0
  9
$PELEVATION
 40
0.0
  9
$THICKNESS
 40
0.0
  9
$LIMCHECK
 70
     0
  9
$CHAMFERA
 40
0.0
  9
$CHAMFERB
 40
0.0
  9
$CHAMFERC
 40
0.0
  9
$CHAMFERD
 40
0.0
  9
$SKPOLY
 70
     0
  9
$TDCREATE
 40
2456720.614652442
  9
$TDUCREATE
 40
2456720.822985776
  9
$TDUPDATE
 40
2456720.614652442
  9
$TDUUPDATE
 40
2456720.822985776
  9
$TDINDWG
 40
0.0000002546
  9
$TDUSRTIMER
 40
0.0000002546
  9
$USRTIMER
 70
     1
  9
$ANGBASE
 50
0.0
  9
$ANGDIR
 70
     0
  9
$PDMODE
 70
     0
  9
$PDSIZE
 40
0.0
  9
$PLINEWID
 40
0.0
  9
$SPLFRAME
 70
     0
  9
$SPLINETYPE
 70
     6
  9
$SPLINESEGS
 70
     8
  9
$HANDSEED
  5
4AD
  9
$SURFTAB1
 70
     6
  9
$SURFTAB2
 70
     6
  9
$SURFTYPE
 70
     6
  9
$SURFU
 70
     6
  9
$SURFV
 70
     6
  9
$UCSBASE
  2

  9
$UCSNAME
  2

  9
$UCSORG
 10
0.0
 20
0.0
 30
0.0
  9
$UCSXDIR
 10
1.0
 20
0.0
 30
0.0
  9
$UCSYDIR
 10
0.0
 20
1.0
 30
0.0
  9
$UCSORTHOREF
  2

  9
$UCSORTHOVIEW
 70
     0
  9
$UCSORGTOP
 10
0.0
 20
0.0
 30
0.0
  9
$UCSORGBOTTOM
 10
0.0
 20
0.0
 30
0.0
  9
$UCSORGLEFT
 10
0.0
 20
0.0
 30
0.0
  9
$UCSORGRIGHT
 10
0.0
 20
0.0
 30
0.0
  9
$UCSORGFRONT
 10
0.0
 20
0.0
 30
0.0
  9
$UCSORGBACK
 10
0.0
 20
0.0
 30
0.0
  9
$PUCSBASE
  2

  9
$PUCSNAME
  2

  9
$PUCSORG
 10
0.0
 20
0.0
 30
0.0
  9
$PUCSXDIR
 10
1.0
 20
0.0
 30
0.0
  9
$PUCSYDIR
 10
0.0
 20
1.0
 30
0.0
  9
$PUCSORTHOREF
  2

  9
$PUCSORTHOVIEW
 70
     0
  9
$PUCSORGTOP
 10
0.0
 20
0.0
 30
0.0
  9
$PUCSORGBOTTOM
 10
0.0
 20
0.0
 30
0.0
  9
$PUCSORGLEFT
 10
0.0
 20
0.0
 30
0.0
  9
$PUCSORGRIGHT
 10
0.0
 20
0.0
 30
0.0
  9
$PUCSORGFRONT
 10
0.0
 20
0.0
 30
0.0
  9
$PUCSORGBACK
 10
0.0
 20
0.0
 30
0.0
  9
$USERI1
 70
     0
  9
$USERI2
 70
     0
  9
$USERI3
 70
     0
  9
$USERI4
 70
     0
  9
$USERI5
 70
     0
  9
$USERR1
 40
0.0
  9
$USERR2
 40
0.0
  9
$USERR3
 40
0.0
  9
$USERR4
 40
0.0
  9
$USERR5
 40
0.0
  9
$WORLDVIEW
 70
     1
  9
$SHADEDGE
 70
     3
  9
$SHADEDIF
 70
    70
  9
$TILEMODE
 70
     1
  9
$MAXACTVP
 70
    64
  9
$PINSBASE
 10
0.0
 20
0.0
 30
0.0
  9
$PLIMCHECK
 70
     0
  9
$PEXTMIN
 10
1.000000000000000E+20
 20
1.000000000000000E+20
 30
1.000000000000000E+20
  9
$PEXTMAX
 10
-1.000000000000000E+20
 20
-1.000000000000000E+20
 30
-1.000000000000000E+20
  9
$PLIMMIN
 10
0.0
 20
0.0
  9
$PLIMMAX
 10
12.0
 20
9.0
  9
$UNITMODE
 70
     0
  9
$VISRETAIN
 70
     1
  9
$PLINEGEN
 70
     0
  9
$PSLTSCALE
 70
     0
  9
$TREEDEPTH
 70
  3020
  9
$CMLSTYLE
  2
Standard
  9
$CMLJUST
 70
     0
  9
$CMLSCALE
 40
1.0
  9
$PROXYGRAPHICS
 70
     1
  9
$MEASUREMENT
 70
     0
  9
$CELWEIGHT
370
    -1
  9
$ENDCAPS
280
     0
  9
$JOINSTYLE
280
     0
  9
$LWDISPLAY
290
     0
  9
$INSUNITS
 70
     1
  9
$HYPERLINKBASE
  1

  9
$STYLESHEET
  1

  9
$XEDIT
290
     1
  9
$CEPSNTYPE
380
     0
  9
$PSTYLEMODE
290
     1
  9
$FINGERPRINTGUID
  2
{1455E6FA-61DE-4EFC-A7AC-DD116F07F1BF}
  9
$VERSIONGUID
  2
{2747D601-9D84-4D0F-9A19-F278D74B5DCE}
  9
$EXTNAMES
290
     1
  9
$PSVPSCALE
 40
0.0
  9
$OLESTARTUP
290
     0
  9
$SORTENTS
280
   127
  9
$INDEXCTL
280
     0
  9
$HIDETEXT
280
     1
  9
$XCLIPFRAME
290
     0
  9
$HALOGAP
280
     0
  9
$OBSCOLOR
 70
   257
  9
$OBSLTYPE
280
     0
  9
$INTERSECTIONDISPLAY
280
     0
  9
$INTERSECTIONCOLOR
 70
   257
  9
$DIMASSOC
280
     2
  9
$PROJECTNAME
  1

  9
$CAMERADISPLAY
290
     0
  9
$LENSLENGTH
 40
50.0
  9
$CAMERAHEIGHT
 40
0.0
  9
$STEPSPERSEC
 40
2.0
  9
$STEPSIZE
 40
6.0
  9
$3DDWFPREC
 40
2.0
  9
$PSOLWIDTH
 40
0.25
  9
$PSOLHEIGHT
 40
4.0
  9
$LOFTANG1
 40
1.570796326794896
  9
$LOFTANG2
 40
1.570796326794896
  9
$LOFTMAG1
 40
0.0
  9
$LOFTMAG2
 40
0.0
  9
$LOFTPARAM
 70
     7
  9
$LOFTNORMALS
280
     1
  9
$LATITUDE
 40
0.0
  9
$LONGITUDE
 40
0.0
  9
$NORTHDIRECTION
 40
0.0
  9
$TIMEZONE
 70
     0
  9
$LIGHTGLYPHDISPLAY
280
     1
  9
$TILEMODELIGHTSYNCH
280
     1
  9
$CMATERIAL
347
11
  9
$SOLIDHIST
280
     1
  9
$SHOWHIST
280
     1
  9
$DWFFRAME
280
     2
  9
$DGNFRAME
280
     0
  9
$REALWORLDSCALE
290
     1
  9
$INTERFERECOLOR
 62
     1
  9
$INTERFEREOBJVS
345
33
  9
$INTERFEREVPVS
346
30
  9
$CSHADOW
280
     0
  9
$SHADOWPLANELOCATION
 40
0.0
  0
ENDSEC
  0
SECTION
  2
CLASSES
  0
CLASS
  1
ACDBDICTIONARYWDFLT
  2
AcDbDictionaryWithDefault
  3
ObjectDBX Classes
 90
        0
 91
        1
280
     0
281
     0
  0
CLASS
  1
MATERIAL
  2
AcDbMaterial
  3
ObjectDBX Classes
 90
     1153
 91
        4
280
     0
281
     0
  0
CLASS
  1
VISUALSTYLE
  2
AcDbVisualStyle
  3
ObjectDBX Classes
 90
     4095
 91
       24
280
     0
281
     0
  0
CLASS
  1
SCALE
  2
AcDbScale
  3
ObjectDBX Classes
 90
     1153
 91
       17
280
     0
281
     0
  0
CLASS
  1
TABLESTYLE
  2
AcDbTableStyle
  3
ObjectDBX Classes
 90
     4095
 91
        1
280
     0
281
     0
  0
CLASS
  1
MLEADERSTYLE
  2
AcDbMLeaderStyle
  3
ACDB_MLEADERSTYLE_CLASS
 90
     4095
 91
        1
280
     0
281
     0
  0
CLASS
  1
SUN
  2
AcDbSun
  3
SCENEOE
 90
     1153
 91
        3
280
     0
281
     0
  0
CLASS
  1
DICTIONARYVAR
  2
AcDbDictionaryVar
  3
ObjectDBX Classes
 90
        0
 91
        4
280
     0
281
     0
  0
CLASS
  1
CELLSTYLEMAP
  2
AcDbCellStyleMap
  3
ObjectDBX Classes
 90
     1152
 91
        1
280
     0
281
     0
  0
ENDSEC
  0
SECTION
  2
TABLES
  0
TABLE
  2
VPORT
  5
8
330
0
100
AcDbSymbolTable
 70
     1
  0
VPORT
  5
57
330
8
100
AcDbSymbolTableRecord
100
AcDbViewportTableRecord
  2
*Active
 70
     0
 10
0.0
 20
0.0
 11
1.0
 21
1.0
 12
908.5025939941404
 22
431.2388760561572
 13
0.0
 23
0.0
 14
1.0
 24
1.0
 15
0.0
 25
0.0
 16
2008.20838372799
 26
-1159.372881576933
 36
889.4948506751875
 17
908.1151001776753
 27
430.7238498769658
 37
1.612827226286242
 40
2.134185217783283
 41
11.24550943377262
 42
50.0
 43
0.0
 44
0.0
 50
0.0
 51
0.0
 71
     0
 72
   100
 73
     1
 74
     1
 75
     0
 76
     0
 77
     0
 78
     0
281
     6
 65
     1
110
0.0
120
0.0
130
0.0
111
1.0
121
0.0
131
0.0
112
0.0
122
1.0
132
0.0
 79
     0
146
0.0
348
2D
 60
     3
 61
     5
292
     1
282
     1
141
0.0
142
0.0
 63
   250
421
  3355443
361
473
  0
ENDTAB
  0
TABLE
  2
LTYPE
  5
5
330
0
100
AcDbSymbolTable
 70
     1
  0
LTYPE
  5
5B
330
5
100
AcDbSymbolTableRecord
100
AcDbLinetypeTableRecord
  2
ByBlock
 70
     0
  3

 72
    65
 73
     0
 40
0.0
  0
LTYPE
  5
5C
330
5
100
AcDbSymbolTableRecord
100
AcDbLinetypeTableRecord
  2
ByLayer
 70
     0
  3

 72
    65
 73
     0
 40
0.0
  0
LTYPE
  5
5D
330
5
100
AcDbSymbolTableRecord
100
AcDbLinetypeTableRecord
  2
Continuous
 70
     0
  3
Solid line
 72
    65
 73
     0
 40
0.0
  0
ENDTAB
  0
TABLE
  2
LAYER
  5
2
330
0
100
AcDbSymbolTable
 70
     2
  0
LAYER
  5
54
330
2
100
AcDbSymbolTableRecord
100
AcDbLayerTableRecord
  2
0
 70
     0
 62
     7
  6
Continuous
370
    -3
390
F
347
21
  0
LAYER
  5
77
330
2
100
AcDbSymbolTableRecord
100
AcDbLayerTableRecord
  2
3D-EQPM
 70
     0
 62
     6
  6
Continuous
370
     9
390
F
347
21
  0
ENDTAB
  0
TABLE
  2
STYLE
  5
3
330
0
100
AcDbSymbolTable
 70
     2
  0
STYLE
  5
55
330
3
100
AcDbSymbolTableRecord
100
AcDbTextStyleTableRecord
  2
Standard
 70
     0
 40
0.0
 41
1.0
 50
0.0
 71
     0
 42
0.2
  3
txt
  4

  0
STYLE
  5
5A
330
3
100
AcDbSymbolTableRecord
100
AcDbTextStyleTableRecord
  2
Annotative
 70
     0
 40
0.0
 41
1.0
 50
0.0
 71
     0
 42
0.2
  3
txt
  4

1001
AcadAnnotative
1000
AnnotativeData
1002
{
1070
     1
1070
     1
1002
}
  0
ENDTAB
  0
TABLE
  2
VIEW
  5
6
330
0
100
AcDbSymbolTable
 70
     1
  0
VIEW
  5
46B
330
6
100
AcDbSymbolTableRecord
100
AcDbViewTableRecord
  2
_3D_
 70
     0
 40
2400.0
 10
0.0
 20
0.0
 41
2400.0
 11
2008.20838372799
 21
-1159.372881576933
 31
889.4948506751875
 12
908.1151001776753
 22
430.7238498769658
 32
1.612827226286242
 42
50.0
 43
0.0
 44
0.0
 50
0.0
 71
     0
281
     0
 72
     0
 73
     0
  0
ENDTAB
  0
TABLE
  2
UCS
  5
7
330
0
100
AcDbSymbolTable
 70
     0
  0
ENDTAB
  0
TABLE
  2
APPID
  5
9
330
0
100
AcDbSymbolTable
 70
     4
  0
APPID
  5
56
330
9
100
AcDbSymbolTableRecord
100
AcDbRegAppTableRecord
  2
ACAD
 70
     0
  0
APPID
  5
5E
330
9
100
AcDbSymbolTableRecord
100
AcDbRegAppTableRecord
  2
AcadAnnotative
 70
     0
  0
APPID
  5
74
330
9
100
AcDbSymbolTableRecord
100
AcDbRegAppTableRecord
  2
REVIT
 70
     0
  0
APPID
  5
4AC
330
9
100
AcDbSymbolTableRecord
100
AcDbRegAppTableRecord
  2
ACAD_MLEADERVER
 70
     0
  0
ENDTAB
  0
TABLE
  2
DIMSTYLE
  5
A
330
0
100
AcDbSymbolTable
 70
     2
100
AcDbDimStyleTable
 71
     0
  0
DIMSTYLE
105
58
330
A
100
AcDbSymbolTableRecord
100
AcDbDimStyleTableRecord
  2
Standard
 70
     0
340
55
  0
DIMSTYLE
105
59
330
A
100
AcDbSymbolTableRecord
100
AcDbDimStyleTableRecord
  2
Annotative
 70
     0
340
55
1001
AcadAnnotative
1000
AnnotativeData
1002
{
1070
     1
1070
     1
1002
}
  0
ENDTAB
  0
TABLE
  2
BLOCK_RECORD
  5
1
330
0
100
AcDbSymbolTable
 70
     4
  0
BLOCK_RECORD
  5
6C
330
1
100
AcDbSymbolTableRecord
100
AcDbBlockTableRecord
  2
*Model_Space
340
6F
 70
     0
280
     1
281
     0
  0
BLOCK_RECORD
  5
68
330
1
100
AcDbSymbolTableRecord
100
AcDbBlockTableRecord
  2
*Paper_Space
340
6B
 70
     0
280
     1
281
     0
  0
BLOCK_RECORD
  5
70
330
1
100
AcDbSymbolTableRecord
100
AcDbBlockTableRecord
  2
*Paper_Space0
340
73
 70
     0
280
     1
281
     0
  0
BLOCK_RECORD
  5
76
330
1
100
AcDbSymbolTableRecord
100
AcDbBlockTableRecord
  2
FamilyGeomCombination_2974-_3D_
340
0
102
{BLKREFS
331
7A
102
}
 70
     0
280
     1
281
     0
  0
BLOCK_RECORD
  5
7B
330
1
100
AcDbSymbolTableRecord
100
AcDbBlockTableRecord
  2
FamilyGeomCombination_3037-_3D_
340
0
102
{BLKREFS
331
7E
102
}
 70
     0
280
     1
281
     0
  0
BLOCK_RECORD
  5
A9
330
1
100
AcDbSymbolTableRecord
100
AcDbBlockTableRecord
  2
Model H - Model H_1-61731-_3D_
340
0
102
{BLKREFS
331
453
331
454
331
455
331
456
331
457
331
458
331
459
331
45A
331
45B
331
45C
331
45D
331
45E
331
45F
331
460
331
461
331
462
331
463
331
464
331
465
331
466
331
467
331
468
331
469
331
46A
102
}
 70
     0
280
     1
281
     0
  0
ENDTAB
  0
ENDSEC
  0
SECTION
  2
BLOCKS
  0
BLOCK
  5
6D
330
6C
100
AcDbEntity
  8
0
100
AcDbBlockBegin
  2
*Model_Space
 70
     0
 10
0.0
 20
0.0
 30
0.0
  3
*Model_Space
  1

  0
ENDBLK
  5
6E
330
6C
100
AcDbEntity
  8
0
100
AcDbBlockEnd
  0
BLOCK
  5
69
330
68
100
AcDbEntity
 67
     1
  8
0
100
AcDbBlockBegin
  2
*Paper_Space
 70
     0
 10
0.0
 20
0.0
 30
0.0
  3
*Paper_Space
  1

  0
ENDBLK
  5
6A
330
68
100
AcDbEntity
 67
     1
  8
0
100
AcDbBlockEnd
  0
BLOCK
  5
71
330
70
100
AcDbEntity
 67
     1
  8
0
100
AcDbBlockBegin
  2
*Paper_Space0
 70
     0
 10
0.0
 20
0.0
 30
0.0
  3
*Paper_Space0
  1

  0
ENDBLK
  5
72
330
70
100
AcDbEntity
 67
     1
  8
0
100
AcDbBlockEnd
  0
BLOCK
  5
78
330
76
100
AcDbEntity
  8
0
100
AcDbBlockBegin
  2
FamilyGeomCombination_2974-_3D_
 70
     0
 10
0.0
 20
0.0
 30
0.0
  3
FamilyGeomCombination_2974-_3D_
  1

  0
ENDBLK
  5
79
330
76
100
AcDbEntity
  8
0
100
AcDbBlockEnd
  0
BLOCK
  5
7C
330
7B
100
AcDbEntity
  8
0
100
AcDbBlockBegin
  2
FamilyGeomCombination_3037-_3D_
 70
     0
 10
0.0
 20
0.0
 30
0.0
  3
FamilyGeomCombination_3037-_3D_
  1

  0
ENDBLK
  5
7D
330
7B
100
AcDbEntity
  8
0
100
AcDbBlockEnd
  0
BLOCK
  5
451
330
A9
100
AcDbEntity
  8
0
100
AcDbBlockBegin
  2
Model H - Model H_1-61731-_3D_
 70
     0
 10
0.0
 20
0.0
 30
0.0
  3
Model H - Model H_1-61731-_3D_
  1

  0
POLYLINE
  5
AA
330
A9
100
AcDbEntity
  8
3D-EQPM
100
AcDbPolyFaceMesh
 66
     1
 10
0.0
 20
0.0
 30
0.0
 70
    64
 71
    24
 72
    22
1001
REVIT
1002
{
1070
     4
1000
14409
1002
}
  0
VERTEX
  5
AB
330
AA
100
AcDbEntity
  8
3D-EQPM
100
AcDbVertex
100
AcDbPolyFaceMeshVertex
 10
0.1951746940612793
 20
0.1296638622879982
 30
0.0168960923328996
 70
   192
  0
VERTEX
  5
AC
330
AA
100
AcDbEntity
  8
3D-EQPM
100
AcDbVertex
100
AcDbPolyFaceMeshVertex
 10
0.1914062574505806
 20
0.1291815117001533
 30
0.0183806391432881
 70
   192
  0
VERTEX
  5
AD
330
AA
100
AcDbEntity
  8
3D-EQPM
100
AcDbVertex
100
AcDbPolyFaceMeshVertex
 10
0.1881702169775963
 20
0.128414187580347
 30
0.0207422110252082
 70
   192
  0
VERTEX
  5
AE
330
AA
100
AcDbEntity
  8
3D-EQPM
100
AcDbVertex
100
AcDbPolyFaceMeshVertex
 10
0.185687106102705
 20
0.1274141930043697
 30
0.0238198712468147
 70
   192
  0
VERTEX
  5
AF
330
AA
100
AcDbEntity
  8
3D-EQPM
100
AcDbVertex
100
AcDbPolyFaceMeshVertex
 10
0.1841261610388755
 20
0.1262496784329414
 30
0.0274038808420301
 70
   192
  0
VERTEX
  5
B0
330
AA
100
AcDbEntity
  8
3D-EQPM
100
AcDbVertex
100
AcDbPolyFaceMeshVertex
 10
0.1835937537252903
 20
0.1250000037252903
 30
0.0312500009313226
 70
   192
  0
VERTEX
  5
B1
330
AA
100
AcDbEntity
  8
3D-EQPM
100
AcDbVertex
100
AcDbPolyFaceMeshVertex
 10
0.1841261610388755
 20
0.1237503178417682
 30
0.0350961182266474
 70
   192
  0
VERTEX
  5
B2
330
AA
100
AcDbEntity
  8
3D-EQPM
100
AcDbVertex
100
AcDbPolyFaceMeshVertex
 10
0.185687106102705
 20
0.1225858032703399
 30
0.0386801278218627
 70
   192
  0
VERTEX
  5
B3
330
AA
100
AcDbEntity
  8
3D-EQPM
100
AcDbVertex
100
AcDbPolyFaceMeshVertex
 10
0.1881702169775963
 20
0.1215858086943626
 30
0.0417577894404531
 70
   192
  0
VERTEX
  5
B4
330
AA
100
AcDbEntity
  8
3D-EQPM
100
AcDbVertex
100
AcDbPolyFaceMeshVertex
 10
0.1914062574505806
 20
0.1208184957504272
 30
0.0441193599253893
 70
   192
  0
VERTEX
  5
B5
330
AA
100
AcDbEntity
  8
3D-EQPM
100
AcDbVertex
100
AcDbPolyFaceMeshVertex
 10
0.1951746940612793
 20
0.1203361339867115
 30
0.0456039067357779
 70
   192
  0
VERTEX
  5
B6
330
AA
100
AcDbEntity
  8
3D-EQPM
100
AcDbVertex
100
AcDbPolyFaceMeshVertex
 10
0.19921875
 20
0.1201716139912605
 30
0.0461102575063705
 70
   192
  0
VERTEX
  5
B7
330
AA
100
AcDbEntity
  8
3D-EQPM
100
AcDbVertex
100
AcDbPolyFaceMeshVertex
 10
0.2032628059387207
 20
0.1203361339867115
 30
0.0456039067357779
 70
   192
  0
VERTEX
  5
B8
330
AA
100
AcDbEntity
  8
3D-EQPM
100
AcDbVertex
100
AcDbPolyFaceMeshVertex
 10
0.2070312425494194
 20
0.1208184957504272
 30
0.0441193599253893
 70
   192
  0
VERTEX
  5
B9
330
AA
100
AcDbEntity
  8
3D-EQPM
100
AcDbVertex
100
AcDbPolyFaceMeshVertex
 10
0.2102672830224037
 20
0.1215858086943626
 30
0.0417577894404531
 70
   192
  0
VERTEX
  5
BA
330
AA
100
AcDbEntity
  8
3D-EQPM
100
AcDbVertex
100
AcDbPolyFaceMeshVertex
 10
0.2127504050731658
 20
0.1225858032703399
 30
0.0386801278218627
 70
   192
  0
VERTEX
  5
BB
330
AA
100
AcDbEntity
  8
3D-EQPM
100
AcDbVertex
100
AcDbPolyFaceMeshVertex
 10
0.2143113389611244
 20
0.1237503178417682
 30
0.0350961182266474
 70
   192
  0
VERTEX
  5
BC
330
AA
100
AcDbEntity
  8
3D-EQPM
100
AcDbVertex
100
AcDbPolyFaceMeshVertex
 10
0.2148437574505805
 20
0.1250000037252903
 30
0.0312500009313226
 70
   192
  0
VERTEX
  5
BD
330
AA
100
AcDbEntity
  8
3D-EQPM
100
AcDbVertex
100
AcDbPolyFaceMeshVertex
 10
0.2143113389611244
 20
0.1262496784329414
 30
0.0274038808420301
 70
   192
  0
VERTEX
  5
BE
330
AA
100
AcDbEntity
  8
3D-EQPM
100
AcDbVertex
100
AcDbPolyFaceMeshVertex
 10
0.2127504050731658
 20
0.1274141930043697
 30
0.0238198712468147
 70
   192
  0
VERTEX
  5
BF
330
AA
100
AcDbEntity
  8
3D-EQPM
100
AcDbVertex
100
AcDbPolyFaceMeshVertex
 10
0.2102672830224037
 20
0.128414187580347
 30
0.0207422110252082
 70
   192
  0
VERTEX
  5
C0
330
AA
100
AcDbEntity
  8
3D-EQPM
100
AcDbVertex
100
AcDbPolyFaceMeshVertex
 10
0.2070312425494194
 20
0.1291815117001533
 30
0.0183806391432881
 70
   192
  0
VERTEX
  5
C1
330
AA
100
AcDbEntity
  8
3D-EQPM
100
AcDbVertex
100
AcDbPolyFaceMeshVertex
 10
0.2032628059387207
 20
0.1296638622879982
 30
0.0168960923328996
 70
   192
  0
VERTEX
  5
C2
330
AA
100
AcDbEntity
  8
3D-EQPM
100
AcDbVertex
100
AcDbPolyFaceMeshVertex
 10
0.19921875
 20
0.12982839345932
 30
0.0163897415623069
 70
   192
  0
VERTEX
  5
C3
330
AA
100
AcDbEntity
  8
3D-EQPM
100
AcDbFaceRecord
 10
0.0
 20
0.0
 30
0.0
 70
   128
 71
     8
 72
     7
 73
    -6
  0
VERTEX
  5
C4
330
AA
100
AcDbEntity
  8
3D-EQPM
100
AcDbFaceRecord
 10
0.0
 20
0.0
 30
0.0
 70
   128
 71
    -8
 72
    -6
 73
    -4
  0
VERTEX
  5
C5
330
AA
100
AcDbEntity
  8
3D-EQPM
100
AcDbFaceRecord
 10
0.0
 20
0.0
 30
0.0
 70
   128
 71
    11
 72
    10
 73
    -9
  0
VERTEX
  5
C6
330
AA
100
AcDbEntity
  8
3D-EQPM
100
AcDbFaceRecord
 10
0.0
 20
0.0
 30
0.0
 70
   128
 71
    -8
 72
   -11
 73
     9
  0
VERTEX
  5
C7
330
AA
100
AcDbEntity
  8
3D-EQPM
100
AcDbFaceRecord
 10
0.0
 20
0.0
 30
0.0
 70
   128
 71
    -4
 72
   -19
 73
    -8
  0
VERTEX
  5
C8
330
AA
100
AcDbEntity
  8
3D-EQPM
100
AcDbFaceRecord
 10
0.0
 20
0.0
 30
0.0
 70
   128
 71
    -3
 72
    -1
 73
     4
  0
VERTEX
  5
C9
330
AA
100
AcDbEntity
  8
3D-EQPM
100
AcDbFaceRecord
 10
0.0
 20
0.0
 30
0.0
 70
   128
 71
     6
 72
     5
 73
    -4
  0
VERTEX
  5
CA
330
AA
100
AcDbEntity
  8
3D-EQPM
100
AcDbFaceRecord
 10
0.0
 20
0.0
 30
0.0
 70
   128
 71
     2
 72
    -1
 73
     3
  0
VERTEX
  5
CB
330
AA
100
AcDbEntity
  8
3D-EQPM
100
AcDbFaceRecord
 10
0.0
 20
0.0
 30
0.0
 70
   128
 71
   -24
 72
    -4
 73
     1
  0
VERTEX
  5
CC
330
AA
100
AcDbEntity
  8
3D-EQPM
100
AcDbFaceRecord
 10
0.0
 20
0.0
 30
0.0
 70
   128
 71
   -24
 72
   -21
 73
    -4
  0
VERTEX
  5
CD
330
AA
100
AcDbEntity
  8
3D-EQPM
100
AcDbFaceRecord
 10
0.0
 20
0.0
 30
0.0
 70
   128
 71
    12
 72
   -11
 73
    -8
  0
VERTEX
  5
CE
330
AA
100
AcDbEntity
  8
3D-EQPM
100
AcDbFaceRecord
 10
0.0
 20
0.0
 30
0.0
 70
   128
 71
    14
 72
    13
 73
   -12
  0
VERTEX
  5
CF
330
AA
100
AcDbEntity
  8
3D-EQPM
100
AcDbFaceRecord
 10
0.0
 20
0.0
 30
0.0
 70
   128
 71
   -18
 72
   -14
 73
    -8
  0
VERTEX
  5
D0
330
AA
100
AcDbEntity
  8
3D-EQPM
100
AcDbFaceRecord
 10
0.0
 20
0.0
 30
0.0
 70
   128
 71
   -16
 72
   -14
 73
   -18
  0
VERTEX
  5
D1
330
AA
100
AcDbEntity
  8
3D-EQPM
100
AcDbFaceRecord
 10
0.0
 20
0.0
 30
0.0
 70
   128
 71
    15
 72
   -14
 73
    16
  0
VERTEX
  5
D2
330
AA
100
AcDbEntity
  8
3D-EQPM
100
AcDbFaceRecord
 10
0.0
 20
0.0
 30
0.0
 70
   128
 71
    17
 72
   -16
 73
    18
  0
VERTEX
  5
D3
330
AA
100
AcDbEntity
  8
3D-EQPM
100
AcDbFaceRecord
 10
0.0
 20
0.0
 30
0.0
 70
   128
 71
    22
 72
   -21
 73
    23
  0
VERTEX
  5
D4
330
AA
100
AcDbEntity
  8
3D-EQPM
100
AcDbFaceRecord
 10
0.0
 20
0.0
 30
0.0
 70
   128
 71
   -23
 72
   -21
 73
    24
  0
VERTEX
  5
D5
330
AA
100
AcDbEntity
  8
3D-EQPM
100
AcDbFaceRecord
 10
0.0
 20
0.0
 30
0.0
 70
   128
 71
    20
 72
   -19
 73
    21
  0
VERTEX
  5
D6
330
AA
100
AcDbEntity
  8
3D-EQPM
100
AcDbFaceRecord
 10
0.0
 20
0.0
 30
0.0
 70
   128
 71
    -4
 72
   -21
 73
   -19
  0
VERTEX
  5
D7
330
AA
100
AcDbEntity
  8
3D-EQPM
100
AcDbFaceRecord
 10
0.0
 20
0.0
 30
0.0
 70
   128
 71
    -8
 72
    19
 73
   -18
  0
VERTEX
  5
D8
330
AA
100
AcDbEntity
  8
3D-EQPM
100
AcDbFaceRecord
 10
0.0
 20
0.0
 30
0.0
 70
   128
 71
   -12
 72
    -8
 73
   -14
  0
SEQEND
  5
D9
330
AA
100
AcDbEntity
  8
3D-EQPM
  0
POLYLINE
  5
DA
330
A9
100
AcDbEntity
  8
3D-EQPM
100
AcDbPolyFaceMesh
 66
     1
 10
0.0
 20
0.0
 30
0.0
 70
    64
 71
    24
 72
    22
1001
REVIT
1002
{
1070
     4
1000
14409
1002
}
  0
VERTEX
  5
DB
330
DA
100
AcDbEntity
  8
3D-EQPM
100
AcDbVertex
100
AcDbPolyFaceMeshVertex
 10
0.19921875
 20
1.688429474830627
 30
0.5228099226951599
 70
   192
  0
VERTEX
  5
DC
330
DA
100
AcDbEntity
  8
3D-EQPM
100
AcDbVertex
100
AcDbPolyFaceMeshVertex
 10
0.1951746940612793
 20
1.688264966011047
 30
0.523316279053688
 70
   192
  0
VERTEX
  5
DD
330
DA
100
AcDbEntity
  8
3D-EQPM
100
AcDbVertex
100
AcDbPolyFaceMeshVertex
 10
0.1914062574505806
 20
1.687782526016235
 30
0.5248007923364639
 70
   192
  0
VERTEX
  5
DE
330
DA
100
AcDbEntity
  8
3D-EQPM
100
AcDbVertex
100
AcDbPolyFaceMeshVertex
 10
0.1881702169775963
 20
1.687015235424041
 30
0.5271623879671096
 70
   192
  0
VERTEX
  5
DF
330
DA
100
AcDbEntity
  8
3D-EQPM
100
AcDbVertex
100
AcDbPolyFaceMeshVertex
 10
0.185687106102705
 20
1.686015129089355
 30
0.5302400439977645
 70
   192
  0
VERTEX
  5
E0
330
DA
100
AcDbEntity
  8
3D-EQPM
100
AcDbVertex
100
AcDbPolyFaceMeshVertex
 10
0.1841261610388755
 20
1.684850692749023
 30
0.5338240563869476
 70
   192
  0
VERTEX
  5
E1
330
DA
100
AcDbEntity
  8
3D-EQPM
100
AcDbVertex
100
AcDbPolyFaceMeshVertex
 10
0.1835937537252903
 20
1.683600962162017
 30
0.5376701653003692
 70
   192
  0
VERTEX
  5
E2
330
DA
100
AcDbEntity
  8
3D-EQPM
100
AcDbVertex
100
AcDbPolyFaceMeshVertex
 10
0.1841261610388755
 20
1.682351410388946
 30
0.5415162742137908
 70
   192
  0
VERTEX
  5
E3
330
DA
100
AcDbEntity
  8
3D-EQPM
100
AcDbVertex
100
AcDbPolyFaceMeshVertex
 10
0.185687106102705
 20
1.681186795234679
 30
0.5451002866029739
 70
   192
  0
VERTEX
  5
E4
330
DA
100
AcDbEntity
  8
3D-EQPM
100
AcDbVertex
100
AcDbPolyFaceMeshVertex
 10
0.1881702169775963
 20
1.680186867713928
 30
0.5481779426336288
 70
   192
  0
VERTEX
  5
E5
330
DA
100
AcDbEntity
  8
3D-EQPM
100
AcDbVertex
100
AcDbPolyFaceMeshVertex
 10
0.1914062574505806
 20
1.679419577121734
 30
0.5505395382642745
 70
   192
  0
VERTEX
  5
E6
330
DA
100
AcDbEntity
  8
3D-EQPM
100
AcDbVertex
100
AcDbPolyFaceMeshVertex
 10
0.1951746940612793
 20
1.678937137126922
 30
0.552024096250534
 70
   192
  0
VERTEX
  5
E7
330
DA
100
AcDbEntity
  8
3D-EQPM
100
AcDbVertex
100
AcDbPolyFaceMeshVertex
 10
0.19921875
 20
1.678772628307342
 30
0.5525304079055786
 70
   192
  0
VERTEX
  5
E8
330
DA
100
AcDbEntity
  8
3D-EQPM
100
AcDbVertex
100
AcDbPolyFaceMeshVertex
 10
0.2032628059387207
 20
1.678937137126922
 30
0.552024096250534
 70
   192
  0
VERTEX
  5
E9
330
DA
100
AcDbEntity
  8
3D-EQPM
100
AcDbVertex
100
AcDbPolyFaceMeshVertex
 10
0.2070312425494194
 20
1.679419577121734
 30
0.5505395382642745
 70
   192
  0
VERTEX
  5
EA
330
DA
100
AcDbEntity
  8
3D-EQPM
100
AcDbVertex
100
AcDbPolyFaceMeshVertex
 10
0.2102672830224037
 20
1.680186867713928
 30
0.5481779426336288
 70
   192
  0
VERTEX
  5
EB
330
DA
100
AcDbEntity
  8
3D-EQPM
100
AcDbVertex
100
AcDbPolyFaceMeshVertex
 10
0.2127504050731658
 20
1.681186795234679
 30
0.5451002866029739
 70
   192
  0
VERTEX
  5
EC
330
DA
100
AcDbEntity
  8
3D-EQPM
100
AcDbVertex
100
AcDbPolyFaceMeshVertex
 10
0.2143113389611244
 20
1.682351410388946
 30
0.5415162742137908
 70
   192
  0
VERTEX
  5
ED
330
DA
100
AcDbEntity
  8
3D-EQPM
100
AcDbVertex
100
AcDbPolyFaceMeshVertex
 10
0.2148437574505805
 20
1.683600962162017
 30
0.5376701653003692
 70
   192
  0
VERTEX
  5
EE
330
DA
100
AcDbEntity
  8
3D-EQPM
100
AcDbVertex
100
AcDbPolyFaceMeshVertex
 10
0.2143113389611244
 20
1.684850692749023
 30
0.5338240563869476
 70
   192
  0
VERTEX
  5
EF
330
DA
100
AcDbEntity
  8
3D-EQPM
100
AcDbVertex
100
AcDbPolyFaceMeshVertex
 10
0.2127504050731658
 20
1.686015129089355
 30
0.5302400439977645
 70
   192
  0
VERTEX
  5
F0
330
DA
100
AcDbEntity
  8
3D-EQPM
100
AcDbVertex
100
AcDbPolyFaceMeshVertex
 10
0.2102672830224037
 20
1.687015235424041
 30
0.5271623879671096
 70
   192
  0
VERTEX
  5
F1
330
DA
100
AcDbEntity
  8
3D-EQPM
100
AcDbVertex
100
AcDbPolyFaceMeshVertex
 10
0.2070312425494194
 20
1.687782526016235
 30
0.5248007923364639
 70
   192
  0
VERTEX
  5
F2
330
DA
100
AcDbEntity
  8
3D-EQPM
100
AcDbVertex
100
AcDbPolyFaceMeshVertex
 10
0.2032628059387207
 20
1.688264966011047
 30
0.523316279053688
 70
   192
  0
VERTEX
  5
F3
330
DA
100
AcDbEntity
  8
3D-EQPM
100
AcDbFaceRecord
 10
0.0
 20
0.0
 30
0.0
 70
   128
 71
    -8
 72
    -4
 73
     7
  0
VERTEX
  5
F4
330
DA
100
AcDbEntity
  8
3D-EQPM
100
AcDbFaceRecord
 10
0.0
 20
0.0
 30
0.0
 70
   128
 71
   -12
 72
     8
 73
    -9
  0
VERTEX
  5
F5
330
DA
100
AcDbEntity
  8
3D-EQPM
100
AcDbFaceRecord
 10
0.0
 20
0.0
 30
0.0
 70
   128
 71
    10
 72
    11
 73
   -12
  0
VERTEX
  5
F6
330
DA
100
AcDbEntity
  8
3D-EQPM
100
AcDbFaceRecord
 10
0.0
 20
0.0
 30
0.0
 70
   128
 71
   -10
 72
   -12
 73
     9
  0
VERTEX
  5
F7
330
DA
100
AcDbEntity
  8
3D-EQPM
100
AcDbFaceRecord
 10
0.0
 20
0.0
 30
0.0
 70
   128
 71
    -4
 72
    -8
 73
   -12
  0
VERTEX
  5
F8
330
DA
100
AcDbEntity
  8
3D-EQPM
100
AcDbFaceRecord
 10
0.0
 20
0.0
 30
0.0
 70
   128
 71
    -6
 72
     4
 73
     5
  0
VERTEX
  5
F9
330
DA
100
AcDbEntity
  8
3D-EQPM
100
AcDbFaceRecord
 10
0.0
 20
0.0
 30
0.0
 70
   128
 71
     6
 72
    -7
 73
    -4
  0
VERTEX
  5
FA
330
DA
100
AcDbEntity
  8
3D-EQPM
100
AcDbFaceRecord
 10
0.0
 20
0.0
 30
0.0
 70
   128
 71
    -4
 72
     2
 73
     3
  0
VERTEX
  5
FB
330
DA
100
AcDbEntity
  8
3D-EQPM
100
AcDbFaceRecord
 10
0.0
 20
0.0
 30
0.0
 70
   128
 71
    -4
 72
   -24
 73
    -2
  0
VERTEX
  5
FC
330
DA
100
AcDbEntity
  8
3D-EQPM
100
AcDbFaceRecord
 10
0.0
 20
0.0
 30
0.0
 70
   128
 71
    -2
 72
    24
 73
     1
  0
VERTEX
  5
FD
330
DA
100
AcDbEntity
  8
3D-EQPM
100
AcDbFaceRecord
 10
0.0
 20
0.0
 30
0.0
 70
   128
 71
   -14
 72
    -4
 73
   -12
  0
VERTEX
  5
FE
330
DA
100
AcDbEntity
  8
3D-EQPM
100
AcDbFaceRecord
 10
0.0
 20
0.0
 30
0.0
 70
   128
 71
   -24
 72
    -4
 73
   -14
  0
VERTEX
  5
FF
330
DA
100
AcDbEntity
  8
3D-EQPM
100
AcDbFaceRecord
 10
0.0
 20
0.0
 30
0.0
 70
   128
 71
   -16
 72
    14
 73
    15
  0
VERTEX
  5
100
330
DA
100
AcDbEntity
  8
3D-EQPM
100
AcDbFaceRecord
 10
0.0
 20
0.0
 30
0.0
 70
   128
 71
   -19
 72
    16
 73
   -17
  0
VERTEX
  5
101
330
DA
100
AcDbEntity
  8
3D-EQPM
100
AcDbFaceRecord
 10
0.0
 20
0.0
 30
0.0
 70
   128
 71
   -14
 72
   -16
 73
   -19
  0
VERTEX
  5
102
330
DA
100
AcDbEntity
  8
3D-EQPM
100
AcDbFaceRecord
 10
0.0
 20
0.0
 30
0.0
 70
   128
 71
    17
 72
    18
 73
   -19
  0
VERTEX
  5
103
330
DA
100
AcDbEntity
  8
3D-EQPM
100
AcDbFaceRecord
 10
0.0
 20
0.0
 30
0.0
 70
   128
 71
   -24
 72
    22
 73
    23
  0
VERTEX
  5
104
330
DA
100
AcDbEntity
  8
3D-EQPM
100
AcDbFaceRecord
 10
0.0
 20
0.0
 30
0.0
 70
   128
 71
   -22
 72
   -24
 73
   -20
  0
VERTEX
  5
105
330
DA
100
AcDbEntity
  8
3D-EQPM
100
AcDbFaceRecord
 10
0.0
 20
0.0
 30
0.0
 70
   128
 71
   -22
 72
    20
 73
    21
  0
VERTEX
  5
106
330
DA
100
AcDbEntity
  8
3D-EQPM
100
AcDbFaceRecord
 10
0.0
 20
0.0
 30
0.0
 70
   128
 71
   -20
 72
   -24
 73
    19
  0
VERTEX
  5
107
330
DA
100
AcDbEntity
  8
3D-EQPM
100
AcDbFaceRecord
 10
0.0
 20
0.0
 30
0.0
 70
   128
 71
   -24
 72
   -14
 73
   -19
  0
VERTEX
  5
108
330
DA
100
AcDbEntity
  8
3D-EQPM
100
AcDbFaceRecord
 10
0.0
 20
0.0
 30
0.0
 70
   128
 71
   -14
 72
    12
 73
    13
  0
SEQEND
  5
109
330
DA
100
AcDbEntity
  8
3D-EQPM
  0
POLYLINE
  5
10A
330
A9
100
AcDbEntity
  8
3D-EQPM
100
AcDbPolyFaceMesh
 66
     1
 10
0.0
 20
0.0
 30
0.0
 70
    64
 71
    26
 72
    24
1001
REVIT
1002
{
1070
     4
1000
14409
1002
}
  0
VERTEX
  5
10B
330
10A
100
AcDbEntity
  8
3D-EQPM
100
AcDbVertex
100
AcDbPolyFaceMeshVertex
 10
0.19921875
 20
0.1201716139912605
 30
0.0461102575063705
 70
   192
  0
VERTEX
  5
10C
330
10A
100
AcDbEntity
  8
3D-EQPM
100
AcDbVertex
100
AcDbPolyFaceMeshVertex
 10
0.2032628059387207
 20
0.1203361339867115
 30
0.0456039067357779
 70
   192
  0
VERTEX
  5
10D
330
10A
100
AcDbEntity
  8
3D-EQPM
100
AcDbVertex
100
AcDbPolyFaceMeshVertex
 10
0.2070312425494194
 20
0.1208184957504272
 30
0.0441193599253893
 70
   192
  0
VERTEX
  5
10E
330
10A
100
AcDbEntity
  8
3D-EQPM
100
AcDbVertex
100
AcDbPolyFaceMeshVertex
 10
0.2102672830224037
 20
0.1215858086943626
 30
0.0417577894404531
 70
   192
  0
VERTEX
  5
10F
330
10A
100
AcDbEntity
  8
3D-EQPM
100
AcDbVertex
100
AcDbPolyFaceMeshVertex
 10
0.2127504050731658
 20
0.1225858032703399
 30
0.0386801278218627
 70
   192
  0
VERTEX
  5
110
330
10A
100
AcDbEntity
  8
3D-EQPM
100
AcDbVertex
100
AcDbPolyFaceMeshVertex
 10
0.2143113389611244
 20
0.1237503178417682
 30
0.0350961182266474
 70
   192
  0
VERTEX
  5
111
330
10A
100
AcDbEntity
  8
3D-EQPM
100
AcDbVertex
100
AcDbPolyFaceMeshVertex
 10
0.2148437574505805
 20
0.1250000037252903
 30
0.0312500009313226
 70
   192
  0
VERTEX
  5
112
330
10A
100
AcDbEntity
  8
3D-EQPM
100
AcDbVertex
100
AcDbPolyFaceMeshVertex
 10
0.2143113389611244
 20
0.1262496784329414
 30
0.0274038808420301
 70
   192
  0
VERTEX
  5
113
330
10A
100
AcDbEntity
  8
3D-EQPM
100
AcDbVertex
100
AcDbPolyFaceMeshVertex
 10
0.2127504050731658
 20
0.1274141930043697
 30
0.0238198712468147
 70
   192
  0
VERTEX
  5
114
330
10A
100
AcDbEntity
  8
3D-EQPM
100
AcDbVertex
100
AcDbPolyFaceMeshVertex
 10
0.2102672830224037
 20
0.128414187580347
 30
0.0207422110252082
 70
   192
  0
VERTEX
  5
115
330
10A
100
AcDbEntity
  8
3D-EQPM
100
AcDbVertex
100
AcDbPolyFaceMeshVertex
 10
0.2070312425494194
 20
0.1291815117001533
 30
0.0183806391432881
 70
   192
  0
VERTEX
  5
116
330
10A
100
AcDbEntity
  8
3D-EQPM
100
AcDbVertex
100
AcDbPolyFaceMeshVertex
 10
0.2032628059387207
 20
0.1296638622879982
 30
0.0168960923328996
 70
   192
  0
VERTEX
  5
117
330
10A
100
AcDbEntity
  8
3D-EQPM
100
AcDbVertex
100
AcDbPolyFaceMeshVertex
 10
0.19921875
 20
0.12982839345932
 30
0.0163897415623069
 70
   192
  0
VERTEX
  5
118
330
10A
100
AcDbEntity
  8
3D-EQPM
100
AcDbVertex
100
AcDbPolyFaceMeshVertex
 10
0.19921875
 20
1.688429474830627
 30
0.5228099226951599
 70
   192
  0
VERTEX
  5
119
330
10A
100
AcDbEntity
  8
3D-EQPM
100
AcDbVertex
100
AcDbPolyFaceMeshVertex
 10
0.2032628059387207
 20
1.688264966011047
 30
0.523316279053688
 70
   192
  0
VERTEX
  5
11A
330
10A
100
AcDbEntity
  8
3D-EQPM
100
AcDbVertex
100
AcDbPolyFaceMeshVertex
 10
0.2070312425494194
 20
1.687782526016235
 30
0.5248007923364639
 70
   192
  0
VERTEX
  5
11B
330
10A
100
AcDbEntity
  8
3D-EQPM
100
AcDbVertex
100
AcDbPolyFaceMeshVertex
 10
0.2102672830224037
 20
1.687015235424041
 30
0.5271623879671096
 70
   192
  0
VERTEX
  5
11C
330
10A
100
AcDbEntity
  8
3D-EQPM
100
AcDbVertex
100
AcDbPolyFaceMeshVertex
 10
0.2127504050731658
 20
1.686015129089355
 30
0.5302400439977645
 70
   192
  0
VERTEX
  5
11D
330
10A
100
AcDbEntity
  8
3D-EQPM
100
AcDbVertex
100
AcDbPolyFaceMeshVertex
 10
0.2143113389611244
 20
1.684850692749023
 30
0.5338240563869476
 70
   192
  0
VERTEX
  5
11E
330
10A
100
AcDbEntity
  8
3D-EQPM
100
AcDbVertex
100
AcDbPolyFaceMeshVertex
 10
0.2148437574505805
 20
1.683600962162017
 30
0.5376701653003692
 70
   192
  0
VERTEX
  5
11F
330
10A
100
AcDbEntity
  8
3D-EQPM
100
AcDbVertex
100
AcDbPolyFaceMeshVertex
 10
0.2143113389611244
 20
1.682351410388946
 30
0.5415162742137908
 70
   192
  0
VERTEX
  5
120
330
10A
100
AcDbEntity
  8
3D-EQPM
100
AcDbVertex
100
AcDbPolyFaceMeshVertex
 10
0.2127504050731658
 20
1.681186795234679
 30
0.5451002866029739
 70
   192
  0
VERTEX
  5
121
330
10A
100
AcDbEntity
  8
3D-EQPM
100
AcDbVertex
100
AcDbPolyFaceMeshVertex
 10
0.2102672830224037
 20
1.680186867713928
 30
0.5481779426336288
 70
   192
  0
VERTEX
  5
122
330
10A
100
AcDbEntity
  8
3D-EQPM
100
AcDbVertex
100
AcDbPolyFaceMeshVertex
 10
0.2070312425494194
 20
1.679419577121734
 30
0.5505395382642745
 70
   192
  0
VERTEX
  5
123
330
10A
100
AcDbEntity
  8
3D-EQPM
100
AcDbVertex
100
AcDbPolyFaceMeshVertex
 10
0.2032628059387207
 20
1.678937137126922
 30
0.552024096250534
 70
   192
  0
VERTEX
  5
124
330
10A
100
AcDbEntity
  8
3D-EQPM
100
AcDbVertex
100
AcDbPolyFaceMeshVertex
 10
0.19921875
 20
1.678772628307342
 30
0.5525304079055786
 70
   192
  0
VERTEX
  5
125
330
10A
100
AcDbEntity
  8
3D-EQPM
100
AcDbFaceRecord
 10
0.0
 20
0.0
 30
0.0
 70
   128
 71
    13
 72
    14
 73
   -15
  0
VERTEX
  5
126
330
10A
100
AcDbEntity
  8
3D-EQPM
100
AcDbFaceRecord
 10
0.0
 20
0.0
 30
0.0
 70
   128
 71
   -12
 72
    15
 73
   -16
  0
VERTEX
  5
127
330
10A
100
AcDbEntity
  8
3D-EQPM
100
AcDbFaceRecord
 10
0.0
 20
0.0
 30
0.0
 70
   128
 71
    18
 72
   -19
 73
    -9
  0
VERTEX
  5
128
330
10A
100
AcDbEntity
  8
3D-EQPM
100
AcDbFaceRecord
 10
0.0
 20
0.0
 30
0.0
 70
   128
 71
    17
 72
   -18
 73
   -10
  0
VERTEX
  5
129
330
10A
100
AcDbEntity
  8
3D-EQPM
100
AcDbFaceRecord
 10
0.0
 20
0.0
 30
0.0
 70
   128
 71
    16
 72
   -17
 73
   -11
  0
VERTEX
  5
12A
330
10A
100
AcDbEntity
  8
3D-EQPM
100
AcDbFaceRecord
 10
0.0
 20
0.0
 30
0.0
 70
   128
 71
   -16
 72
    11
 73
   -12
  0
VERTEX
  5
12B
330
10A
100
AcDbEntity
  8
3D-EQPM
100
AcDbFaceRecord
 10
0.0
 20
0.0
 30
0.0
 70
   128
 71
    12
 72
   -13
 73
   -15
  0
VERTEX
  5
12C
330
10A
100
AcDbEntity
  8
3D-EQPM
100
AcDbFaceRecord
 10
0.0
 20
0.0
 30
0.0
 70
   128
 71
    -8
 72
   -20
 73
     7
  0
VERTEX
  5
12D
330
10A
100
AcDbEntity
  8
3D-EQPM
100
AcDbFaceRecord
 10
0.0
 20
0.0
 30
0.0
 70
   128
 71
     8
 72
    -9
 73
   -19
  0
VERTEX
  5
12E
330
10A
100
AcDbEntity
  8
3D-EQPM
100
AcDbFaceRecord
 10
0.0
 20
0.0
 30
0.0
 70
   128
 71
   -10
 72
   -18
 73
     9
  0
VERTEX
  5
12F
330
10A
100
AcDbEntity
  8
3D-EQPM
100
AcDbFaceRecord
 10
0.0
 20
0.0
 30
0.0
 70
   128
 71
    10
 72
   -11
 73
   -17
  0
VERTEX
  5
130
330
10A
100
AcDbEntity
  8
3D-EQPM
100
AcDbFaceRecord
 10
0.0
 20
0.0
 30
0.0
 70
   128
 71
   -20
 72
    -8
 73
    19
  0
VERTEX
  5
131
330
10A
100
AcDbEntity
  8
3D-EQPM
100
AcDbFaceRecord
 10
0.0
 20
0.0
 30
0.0
 70
   128
 71
    22
 72
   -23
 73
    -5
  0
VERTEX
  5
132
330
10A
100
AcDbEntity
  8
3D-EQPM
100
AcDbFaceRecord
 10
0.0
 20
0.0
 30
0.0
 70
   128
 71
    21
 72
   -22
 73
    -6
  0
VERTEX
  5
133
330
10A
100
AcDbEntity
  8
3D-EQPM
100
AcDbFaceRecord
 10
0.0
 20
0.0
 30
0.0
 70
   128
 71
    25
 72
   -26
 73
    -2
  0
VERTEX
  5
134
330
10A
100
AcDbEntity
  8
3D-EQPM
100
AcDbFaceRecord
 10
0.0
 20
0.0
 30
0.0
 70
   128
 71
    24
 72
   -25
 73
    -3
  0
VERTEX
  5
135
330
10A
100
AcDbEntity
  8
3D-EQPM
100
AcDbFaceRecord
 10
0.0
 20
0.0
 30
0.0
 70
   128
 71
    23
 72
   -24
 73
    -4
  0
VERTEX
  5
136
330
10A
100
AcDbEntity
  8
3D-EQPM
100
AcDbFaceRecord
 10
0.0
 20
0.0
 30
0.0
 70
   128
 71
   -22
 72
     5
 73
    -6
  0
VERTEX
  5
137
330
10A
100
AcDbEntity
  8
3D-EQPM
100
AcDbFaceRecord
 10
0.0
 20
0.0
 30
0.0
 70
   128
 71
     6
 72
    -7
 73
   -21
  0
VERTEX
  5
138
330
10A
100
AcDbEntity
  8
3D-EQPM
100
AcDbFaceRecord
 10
0.0
 20
0.0
 30
0.0
 70
   128
 71
     2
 72
    -3
 73
   -25
  0
VERTEX
  5
139
330
10A
100
AcDbEntity
  8
3D-EQPM
100
AcDbFaceRecord
 10
0.0
 20
0.0
 30
0.0
 70
   128
 71
    -4
 72
   -24
 73
     3
  0
VERTEX
  5
13A
330
10A
100
AcDbEntity
  8
3D-EQPM
100
AcDbFaceRecord
 10
0.0
 20
0.0
 30
0.0
 70
   128
 71
     4
 72
    -5
 73
   -23
  0
VERTEX
  5
13B
330
10A
100
AcDbEntity
  8
3D-EQPM
100
AcDbFaceRecord
 10
0.0
 20
0.0
 30
0.0
 70
   128
 71
     1
 72
    -2
 73
    26
  0
VERTEX
  5
13C
330
10A
100
AcDbEntity
  8
3D-EQPM
100
AcDbFaceRecord
 10
0.0
 20
0.0
 30
0.0
 70
   128
 71
   -21
 72
    -7
 73
    20
  0
SEQEND
  5
13D
330
10A
100
AcDbEntity
  8
3D-EQPM
  0
POLYLINE
  5
13E
330
A9
100
AcDbEntity
  8
3D-EQPM
100
AcDbPolyFaceMesh
 66
     1
 10
0.0
 20
0.0
 30
0.0
 70
    64
 71
    26
 72
    22
1001
REVIT
1002
{
1070
     4
1000
14409
1002
}
  0
VERTEX
  5
13F
330
13E
100
AcDbEntity
  8
3D-EQPM
100
AcDbVertex
100
AcDbPolyFaceMeshVertex
 10
0.19921875
 20
0.12982839345932
 30
0.0163897415623069
 70
   192
  0
VERTEX
  5
140
330
13E
100
AcDbEntity
  8
3D-EQPM
100
AcDbVertex
100
AcDbPolyFaceMeshVertex
 10
0.1951746940612793
 20
0.1296638622879982
 30
0.0168960923328996
 70
   192
  0
VERTEX
  5
141
330
13E
100
AcDbEntity
  8
3D-EQPM
100
AcDbVertex
100
AcDbPolyFaceMeshVertex
 10
0.1914062574505806
 20
0.1291815117001533
 30
0.0183806391432881
 70
   192
  0
VERTEX
  5
142
330
13E
100
AcDbEntity
  8
3D-EQPM
100
AcDbVertex
100
AcDbPolyFaceMeshVertex
 10
0.1881702169775963
 20
0.128414187580347
 30
0.0207422110252082
 70
   192
  0
VERTEX
  5
143
330
13E
100
AcDbEntity
  8
3D-EQPM
100
AcDbVertex
100
AcDbPolyFaceMeshVertex
 10
0.185687106102705
 20
0.1274141930043697
 30
0.0238198712468147
 70
   192
  0
VERTEX
  5
144
330
13E
100
AcDbEntity
  8
3D-EQPM
100
AcDbVertex
100
AcDbPolyFaceMeshVertex
 10
0.1841261610388755
 20
0.1262496784329414
 30
0.0274038808420301
 70
   192
  0
VERTEX
  5
145
330
13E
100
AcDbEntity
  8
3D-EQPM
100
AcDbVertex
100
AcDbPolyFaceMeshVertex
 10
0.1835937537252903
 20
0.1250000037252903
 30
0.0312500009313226
 70
   192
  0
VERTEX
  5
146
330
13E
100
AcDbEntity
  8
3D-EQPM
100
AcDbVertex
100
AcDbPolyFaceMeshVertex
 10
0.1841261610388755
 20
0.1237503178417682
 30
0.0350961182266474
 70
   192
  0
VERTEX
  5
147
330
13E
100
AcDbEntity
  8
3D-EQPM
100
AcDbVertex
100
AcDbPolyFaceMeshVertex
 10
0.185687106102705
 20
0.1225858032703399
 30
0.0386801278218627
 70
   192
  0
VERTEX
  5
148
330
13E
100
AcDbEntity
  8
3D-EQPM
100
AcDbVertex
100
AcDbPolyFaceMeshVertex
 10
0.1881702169775963
 20
0.1215858086943626
 30
0.0417577894404531
 70
   192
  0
VERTEX
  5
149
330
13E
100
AcDbEntity
  8
3D-EQPM
100
AcDbVertex
100
AcDbPolyFaceMeshVertex
 10
0.1914062574505806
 20
0.1208184957504272
 30
0.0441193599253893
 70
   192
  0
VERTEX
  5
14A
330
13E
100
AcDbEntity
  8
3D-EQPM
100
AcDbVertex
100
AcDbPolyFaceMeshVertex
 10
0.1951746940612793
 20
0.1203361339867115
 30
0.0456039067357779
 70
   192
  0
VERTEX
  5
14B
330
13E
100
AcDbEntity
  8
3D-EQPM
100
AcDbVertex
100
AcDbPolyFaceMeshVertex
 10
0.19921875
 20
0.1201716139912605
 30
0.0461102575063705
 70
   192
  0
VERTEX
  5
14C
330
13E
100
AcDbEntity
  8
3D-EQPM
100
AcDbVertex
100
AcDbPolyFaceMeshVertex
 10
0.19921875
 20
1.678772628307342
 30
0.5525304079055786
 70
   192
  0
VERTEX
  5
14D
330
13E
100
AcDbEntity
  8
3D-EQPM
100
AcDbVertex
100
AcDbPolyFaceMeshVertex
 10
0.1951746940612793
 20
1.678937137126922
 30
0.552024096250534
 70
   192
  0
VERTEX
  5
14E
330
13E
100
AcDbEntity
  8
3D-EQPM
100
AcDbVertex
100
AcDbPolyFaceMeshVertex
 10
0.1914062574505806
 20
1.679419577121734
 30
0.5505395382642745
 70
   192
  0
VERTEX
  5
14F
330
13E
100
AcDbEntity
  8
3D-EQPM
100
AcDbVertex
100
AcDbPolyFaceMeshVertex
 10
0.1881702169775963
 20
1.680186867713928
 30
0.5481779426336288
 70
   192
  0
VERTEX
  5
150
330
13E
100
AcDbEntity
  8
3D-EQPM
100
AcDbVertex
100
AcDbPolyFaceMeshVertex
 10
0.185687106102705
 20
1.681186795234679
 30
0.5451002866029739
 70
   192
  0
VERTEX
  5
151
330
13E
100
AcDbEntity
  8
3D-EQPM
100
AcDbVertex
100
AcDbPolyFaceMeshVertex
 10
0.1841261610388755
 20
1.682351410388946
 30
0.5415162742137908
 70
   192
  0
VERTEX
  5
152
330
13E
100
AcDbEntity
  8
3D-EQPM
100
AcDbVertex
100
AcDbPolyFaceMeshVertex
 10
0.1835937537252903
 20
1.683600962162017
 30
0.5376701653003692
 70
   192
  0
VERTEX
  5
153
330
13E
100
AcDbEntity
  8
3D-EQPM
100
AcDbVertex
100
AcDbPolyFaceMeshVertex
 10
0.1841261610388755
 20
1.684850692749023
 30
0.5338240563869476
 70
   192
  0
VERTEX
  5
154
330
13E
100
AcDbEntity
  8
3D-EQPM
100
AcDbVertex
100
AcDbPolyFaceMeshVertex
 10
0.185687106102705
 20
1.686015129089355
 30
0.5302400439977645
 70
   192
  0
VERTEX
  5
155
330
13E
100
AcDbEntity
  8
3D-EQPM
100
AcDbVertex
100
AcDbPolyFaceMeshVertex
 10
0.1881702169775963
 20
1.687015235424041
 30
0.5271623879671096
 70
   192
  0
VERTEX
  5
156
330
13E
100
AcDbEntity
  8
3D-EQPM
100
AcDbVertex
100
AcDbPolyFaceMeshVertex
 10
0.1914062574505806
 20
1.687782526016235
 30
0.5248007923364639
 70
   192
  0
VERTEX
  5
157
330
13E
100
AcDbEntity
  8
3D-EQPM
100
AcDbVertex
100
AcDbPolyFaceMeshVertex
 10
0.1951746940612793
 20
1.688264966011047
 30
0.523316279053688
 70
   192
  0
VERTEX
  5
158
330
13E
100
AcDbEntity
  8
3D-EQPM
100
AcDbVertex
100
AcDbPolyFaceMeshVertex
 10
0.19921875
 20
1.688429474830627
 30
0.5228099226951599
 70
   192
  0
VERTEX
  5
159
330
13E
100
AcDbEntity
  8
3D-EQPM
100
AcDbFaceRecord
 10
0.0
 20
0.0
 30
0.0
 70
   128
 71
   -12
 72
    15
 73
   -16
 74
    11
  0
VERTEX
  5
15A
330
13E
100
AcDbEntity
  8
3D-EQPM
100
AcDbFaceRecord
 10
0.0
 20
0.0
 30
0.0
 70
   128
 71
    14
 72
   -15
 73
    13
  0
VERTEX
  5
15B
330
13E
100
AcDbEntity
  8
3D-EQPM
100
AcDbFaceRecord
 10
0.0
 20
0.0
 30
0.0
 70
   128
 71
    18
 72
   -19
 73
    -9
  0
VERTEX
  5
15C
330
13E
100
AcDbEntity
  8
3D-EQPM
100
AcDbFaceRecord
 10
0.0
 20
0.0
 30
0.0
 70
   128
 71
    17
 72
   -18
 73
   -10
  0
VERTEX
  5
15D
330
13E
100
AcDbEntity
  8
3D-EQPM
100
AcDbFaceRecord
 10
0.0
 20
0.0
 30
0.0
 70
   128
 71
    16
 72
   -17
 73
   -11
  0
VERTEX
  5
15E
330
13E
100
AcDbEntity
  8
3D-EQPM
100
AcDbFaceRecord
 10
0.0
 20
0.0
 30
0.0
 70
   128
 71
    12
 72
   -13
 73
   -15
  0
VERTEX
  5
15F
330
13E
100
AcDbEntity
  8
3D-EQPM
100
AcDbFaceRecord
 10
0.0
 20
0.0
 30
0.0
 70
   128
 71
    -8
 72
   -20
 73
     7
  0
VERTEX
  5
160
330
13E
100
AcDbEntity
  8
3D-EQPM
100
AcDbFaceRecord
 10
0.0
 20
0.0
 30
0.0
 70
   128
 71
     8
 72
    -9
 73
   -19
  0
VERTEX
  5
161
330
13E
100
AcDbEntity
  8
3D-EQPM
100
AcDbFaceRecord
 10
0.0
 20
0.0
 30
0.0
 70
   128
 71
   -10
 72
   -18
 73
     9
  0
VERTEX
  5
162
330
13E
100
AcDbEntity
  8
3D-EQPM
100
AcDbFaceRecord
 10
0.0
 20
0.0
 30
0.0
 70
   128
 71
    10
 72
   -11
 73
   -17
  0
VERTEX
  5
163
330
13E
100
AcDbEntity
  8
3D-EQPM
100
AcDbFaceRecord
 10
0.0
 20
0.0
 30
0.0
 70
   128
 71
   -20
 72
    -8
 73
    19
  0
VERTEX
  5
164
330
13E
100
AcDbEntity
  8
3D-EQPM
100
AcDbFaceRecord
 10
0.0
 20
0.0
 30
0.0
 70
   128
 71
    22
 72
   -23
 73
    -4
  0
VERTEX
  5
165
330
13E
100
AcDbEntity
  8
3D-EQPM
100
AcDbFaceRecord
 10
0.0
 20
0.0
 30
0.0
 70
   128
 71
    21
 72
   -22
 73
    -6
  0
VERTEX
  5
166
330
13E
100
AcDbEntity
  8
3D-EQPM
100
AcDbFaceRecord
 10
0.0
 20
0.0
 30
0.0
 70
   128
 71
    -2
 72
    25
 73
    26
 74
     1
  0
VERTEX
  5
167
330
13E
100
AcDbEntity
  8
3D-EQPM
100
AcDbFaceRecord
 10
0.0
 20
0.0
 30
0.0
 70
   128
 71
    24
 72
   -25
 73
    -3
  0
VERTEX
  5
168
330
13E
100
AcDbEntity
  8
3D-EQPM
100
AcDbFaceRecord
 10
0.0
 20
0.0
 30
0.0
 70
   128
 71
    23
 72
   -24
 73
    -3
  0
VERTEX
  5
169
330
13E
100
AcDbEntity
  8
3D-EQPM
100
AcDbFaceRecord
 10
0.0
 20
0.0
 30
0.0
 70
   128
 71
   -22
 72
     5
 73
    -6
  0
VERTEX
  5
16A
330
13E
100
AcDbEntity
  8
3D-EQPM
100
AcDbFaceRecord
 10
0.0
 20
0.0
 30
0.0
 70
   128
 71
     6
 72
    -7
 73
   -21
  0
VERTEX
  5
16B
330
13E
100
AcDbEntity
  8
3D-EQPM
100
AcDbFaceRecord
 10
0.0
 20
0.0
 30
0.0
 70
   128
 71
     4
 72
    -5
 73
   -22
  0
VERTEX
  5
16C
330
13E
100
AcDbEntity
  8
3D-EQPM
100
AcDbFaceRecord
 10
0.0
 20
0.0
 30
0.0
 70
   128
 71
     2
 72
    -3
 73
   -25
  0
VERTEX
  5
16D
330
13E
100
AcDbEntity
  8
3D-EQPM
100
AcDbFaceRecord
 10
0.0
 20
0.0
 30
0.0
 70
   128
 71
    -4
 72
   -23
 73
     3
  0
VERTEX
  5
16E
330
13E
100
AcDbEntity
  8
3D-EQPM
100
AcDbFaceRecord
 10
0.0
 20
0.0
 30
0.0
 70
   128
 71
   -21
 72
    -7
 73
    20
  0
SEQEND
  5
16F
330
13E
100
AcDbEntity
  8
3D-EQPM
  0
POLYLINE
  5
170
330
A9
100
AcDbEntity
  8
3D-EQPM
100
AcDbPolyFaceMesh
 66
     1
 10
0.0
 20
0.0
 30
0.0
 70
    64
 71
    24
 72
    12
1001
REVIT
1002
{
1070
     4
1000
14409
1002
}
  0
VERTEX
  5
171
330
170
100
AcDbEntity
  8
3D-EQPM
100
AcDbVertex
100
AcDbPolyFaceMeshVertex
 10
0.7928309440612792
 20
0.1400925926864147
 30
0.0312500009313226
 70
   192
  0
VERTEX
  5
172
330
170
100
AcDbEntity
  8
3D-EQPM
100
AcDbVertex
100
AcDbPolyFaceMeshVertex
 10
0.7890625298023223
 20
0.1385316476225853
 30
0.0312500009313226
 70
   192
  0
VERTEX
  5
173
330
170
100
AcDbEntity
  8
3D-EQPM
100
AcDbVertex
100
AcDbPolyFaceMeshVertex
 10
0.7858264446258544
 20
0.1360485479235649
 30
0.0312500009313226
 70
   192
  0
VERTEX
  5
174
330
170
100
AcDbEntity
  8
3D-EQPM
100
AcDbVertex
100
AcDbPolyFaceMeshVertex
 10
0.7833433449268341
 20
0.1328124962747097
 30
0.0312500009313226
 70
   192
  0
VERTEX
  5
175
330
170
100
AcDbEntity
  8
3D-EQPM
100
AcDbVertex
100
AcDbPolyFaceMeshVertex
 10
0.7817823886871337
 20
0.1290440484881401
 30
0.0312500009313226
 70
   192
  0
VERTEX
  5
176
330
170
100
AcDbEntity
  8
3D-EQPM
100
AcDbVertex
100
AcDbPolyFaceMeshVertex
 10
0.7812499701976776
 20
0.1250000037252903
 30
0.0312500009313226
 70
   192
  0
VERTEX
  5
177
330
170
100
AcDbEntity
  8
3D-EQPM
100
AcDbVertex
100
AcDbPolyFaceMeshVertex
 10
0.7817823886871337
 20
0.1209559477865696
 30
0.0312500009313226
 70
   192
  0
VERTEX
  5
178
330
170
100
AcDbEntity
  8
3D-EQPM
100
AcDbVertex
100
AcDbPolyFaceMeshVertex
 10
0.7833433449268341
 20
0.1171875
 30
0.0312500009313226
 70
   192
  0
VERTEX
  5
179
330
170
100
AcDbEntity
  8
3D-EQPM
100
AcDbVertex
100
AcDbPolyFaceMeshVertex
 10
0.7858264446258544
 20
0.1139514595270157
 30
0.0312500009313226
 70
   192
  0
VERTEX
  5
17A
330
170
100
AcDbEntity
  8
3D-EQPM
100
AcDbVertex
100
AcDbPolyFaceMeshVertex
 10
0.7890625298023223
 20
0.1114683486521244
 30
0.0312500009313226
 70
   192
  0
VERTEX
  5
17B
330
170
100
AcDbEntity
  8
3D-EQPM
100
AcDbVertex
100
AcDbPolyFaceMeshVertex
 10
0.7928309440612792
 20
0.109907403588295
 30
0.0312500009313226
 70
   192
  0
VERTEX
  5
17C
330
170
100
AcDbEntity
  8
3D-EQPM
100
AcDbVertex
100
AcDbPolyFaceMeshVertex
 10
0.796875
 20
0.1093749962747097
 30
0.0312500009313226
 70
   192
  0
VERTEX
  5
17D
330
170
100
AcDbEntity
  8
3D-EQPM
100
AcDbVertex
100
AcDbPolyFaceMeshVertex
 10
0.8009190559387205
 20
0.109907403588295
 30
0.0312500009313226
 70
   192
  0
VERTEX
  5
17E
330
170
100
AcDbEntity
  8
3D-EQPM
100
AcDbVertex
100
AcDbPolyFaceMeshVertex
 10
0.8046874701976774
 20
0.1114683486521244
 30
0.0312500009313226
 70
   192
  0
VERTEX
  5
17F
330
170
100
AcDbEntity
  8
3D-EQPM
100
AcDbVertex
100
AcDbPolyFaceMeshVertex
 10
0.8079235553741453
 20
0.1139514595270157
 30
0.0312500009313226
 70
   192
  0
VERTEX
  5
180
330
170
100
AcDbEntity
  8
3D-EQPM
100
AcDbVertex
100
AcDbPolyFaceMeshVertex
 10
0.8104066550731657
 20
0.1171875
 30
0.0312500009313226
 70
   192
  0
VERTEX
  5
181
330
170
100
AcDbEntity
  8
3D-EQPM
100
AcDbVertex
100
AcDbPolyFaceMeshVertex
 10
0.811967611312866
 20
0.1209559477865696
 30
0.0312500009313226
 70
   192
  0
VERTEX
  5
182
330
170
100
AcDbEntity
  8
3D-EQPM
100
AcDbVertex
100
AcDbPolyFaceMeshVertex
 10
0.8125000298023222
 20
0.1250000037252903
 30
0.0312500009313226
 70
   192
  0
VERTEX
  5
183
330
170
100
AcDbEntity
  8
3D-EQPM
100
AcDbVertex
100
AcDbPolyFaceMeshVertex
 10
0.811967611312866
 20
0.1290440484881401
 30
0.0312500009313226
 70
   192
  0
VERTEX
  5
184
330
170
100
AcDbEntity
  8
3D-EQPM
100
AcDbVertex
100
AcDbPolyFaceMeshVertex
 10
0.8104066550731657
 20
0.1328124962747097
 30
0.0312500009313226
 70
   192
  0
VERTEX
  5
185
330
170
100
AcDbEntity
  8
3D-EQPM
100
AcDbVertex
100
AcDbPolyFaceMeshVertex
 10
0.8079235553741453
 20
0.1360485479235649
 30
0.0312500009313226
 70
   192
  0
VERTEX
  5
186
330
170
100
AcDbEntity
  8
3D-EQPM
100
AcDbVertex
100
AcDbPolyFaceMeshVertex
 10
0.8046874701976774
 20
0.1385316476225853
 30
0.0312500009313226
 70
   192
  0
VERTEX
  5
187
330
170
100
AcDbEntity
  8
3D-EQPM
100
AcDbVertex
100
AcDbPolyFaceMeshVertex
 10
0.8009190559387205
 20
0.1400925926864147
 30
0.0312500009313226
 70
   192
  0
VERTEX
  5
188
330
170
100
AcDbEntity
  8
3D-EQPM
100
AcDbVertex
100
AcDbPolyFaceMeshVertex
 10
0.796875
 20
0.140625
 30
0.0312500009313226
 70
   192
  0
VERTEX
  5
189
330
170
100
AcDbEntity
  8
3D-EQPM
100
AcDbFaceRecord
 10
0.0
 20
0.0
 30
0.0
 70
   128
 71
     8
 72
     7
 73
    -6
 74
   -15
  0
VERTEX
  5
18A
330
170
100
AcDbEntity
  8
3D-EQPM
100
AcDbFaceRecord
 10
0.0
 20
0.0
 30
0.0
 70
   128
 71
    10
 72
     9
 73
    -8
 74
    11
  0
VERTEX
  5
18B
330
170
100
AcDbEntity
  8
3D-EQPM
100
AcDbFaceRecord
 10
0.0
 20
0.0
 30
0.0
 70
   128
 71
   -11
 72
    -8
 73
   -15
 74
    12
  0
VERTEX
  5
18C
330
170
100
AcDbEntity
  8
3D-EQPM
100
AcDbFaceRecord
 10
0.0
 20
0.0
 30
0.0
 70
   128
 71
     5
 72
     4
 73
    -3
 74
     6
  0
VERTEX
  5
18D
330
170
100
AcDbEntity
  8
3D-EQPM
100
AcDbFaceRecord
 10
0.0
 20
0.0
 30
0.0
 70
   128
 71
    -6
 72
     3
 73
     2
 74
    -1
  0
VERTEX
  5
18E
330
170
100
AcDbEntity
  8
3D-EQPM
100
AcDbFaceRecord
 10
0.0
 20
0.0
 30
0.0
 70
   128
 71
    -6
 72
    -1
 73
   -21
 74
   -18
  0
VERTEX
  5
18F
330
170
100
AcDbEntity
  8
3D-EQPM
100
AcDbFaceRecord
 10
0.0
 20
0.0
 30
0.0
 70
   128
 71
    15
 72
    14
 73
    13
 74
   -12
  0
VERTEX
  5
190
330
170
100
AcDbEntity
  8
3D-EQPM
100
AcDbFaceRecord
 10
0.0
 20
0.0
 30
0.0
 70
   128
 71
   -15
 72
    -6
 73
    18
 74
   -17
  0
VERTEX
  5
191
330
170
100
AcDbEntity
  8
3D-EQPM
100
AcDbFaceRecord
 10
0.0
 20
0.0
 30
0.0
 70
   128
 71
    16
 72
   -15
 73
    17
  0
VERTEX
  5
192
330
170
100
AcDbEntity
  8
3D-EQPM
100
AcDbFaceRecord
 10
0.0
 20
0.0
 30
0.0
 70
   128
 71
    23
 72
    22
 73
   -21
 74
    -1
  0
VERTEX
  5
193
330
170
100
AcDbEntity
  8
3D-EQPM
100
AcDbFaceRecord
 10
0.0
 20
0.0
 30
0.0
 70
   128
 71
     1
 72
    24
 73
   -23
  0
VERTEX
  5
194
330
170
100
AcDbEntity
  8
3D-EQPM
100
AcDbFaceRecord
 10
0.0
 20
0.0
 30
0.0
 70
   128
 71
   -18
 72
    21
 73
    20
 74
    19
  0
SEQEND
  5
195
330
170
100
AcDbEntity
  8
3D-EQPM
  0
POLYLINE
  5
196
330
A9
100
AcDbEntity
  8
3D-EQPM
100
AcDbPolyFaceMesh
 66
     1
 10
0.0
 20
0.0
 30
0.0
 70
    64
 71
    26
 72
    12
1001
REVIT
1002
{
1070
     4
1000
14409
1002
}
  0
VERTEX
  5
197
330
196
100
AcDbEntity
  8
3D-EQPM
100
AcDbVertex
100
AcDbPolyFaceMeshVertex
 10
0.796875
 20
0.1093749962747097
 30
0.0312500009313226
 70
   192
  0
VERTEX
  5
198
330
196
100
AcDbEntity
  8
3D-EQPM
100
AcDbVertex
100
AcDbPolyFaceMeshVertex
 10
0.8009190559387205
 20
0.109907403588295
 30
0.0312500009313226
 70
   192
  0
VERTEX
  5
199
330
196
100
AcDbEntity
  8
3D-EQPM
100
AcDbVertex
100
AcDbPolyFaceMeshVertex
 10
0.8046874701976774
 20
0.1114683486521244
 30
0.0312500009313226
 70
   192
  0
VERTEX
  5
19A
330
196
100
AcDbEntity
  8
3D-EQPM
100
AcDbVertex
100
AcDbPolyFaceMeshVertex
 10
0.8079235553741453
 20
0.1139514595270157
 30
0.0312500009313226
 70
   192
  0
VERTEX
  5
19B
330
196
100
AcDbEntity
  8
3D-EQPM
100
AcDbVertex
100
AcDbPolyFaceMeshVertex
 10
0.8104066550731657
 20
0.1171875
 30
0.0312500009313226
 70
   192
  0
VERTEX
  5
19C
330
196
100
AcDbEntity
  8
3D-EQPM
100
AcDbVertex
100
AcDbPolyFaceMeshVertex
 10
0.811967611312866
 20
0.1209559477865696
 30
0.0312500009313226
 70
   192
  0
VERTEX
  5
19D
330
196
100
AcDbEntity
  8
3D-EQPM
100
AcDbVertex
100
AcDbPolyFaceMeshVertex
 10
0.8125000298023222
 20
0.1250000037252903
 30
0.0312500009313226
 70
   192
  0
VERTEX
  5
19E
330
196
100
AcDbEntity
  8
3D-EQPM
100
AcDbVertex
100
AcDbPolyFaceMeshVertex
 10
0.811967611312866
 20
0.1290440484881401
 30
0.0312500009313226
 70
   192
  0
VERTEX
  5
19F
330
196
100
AcDbEntity
  8
3D-EQPM
100
AcDbVertex
100
AcDbPolyFaceMeshVertex
 10
0.8104066550731657
 20
0.1328124962747097
 30
0.0312500009313226
 70
   192
  0
VERTEX
  5
1A0
330
196
100
AcDbEntity
  8
3D-EQPM
100
AcDbVertex
100
AcDbPolyFaceMeshVertex
 10
0.8079235553741453
 20
0.1360485479235649
 30
0.0312500009313226
 70
   192
  0
VERTEX
  5
1A1
330
196
100
AcDbEntity
  8
3D-EQPM
100
AcDbVertex
100
AcDbPolyFaceMeshVertex
 10
0.8046874701976774
 20
0.1385316476225853
 30
0.0312500009313226
 70
   192
  0
VERTEX
  5
1A2
330
196
100
AcDbEntity
  8
3D-EQPM
100
AcDbVertex
100
AcDbPolyFaceMeshVertex
 10
0.8009190559387205
 20
0.1400925926864147
 30
0.0312500009313226
 70
   192
  0
VERTEX
  5
1A3
330
196
100
AcDbEntity
  8
3D-EQPM
100
AcDbVertex
100
AcDbPolyFaceMeshVertex
 10
0.796875
 20
0.140625
 30
0.0312500009313226
 70
   192
  0
VERTEX
  5
1A4
330
196
100
AcDbEntity
  8
3D-EQPM
100
AcDbVertex
100
AcDbPolyFaceMeshVertex
 10
0.796875
 20
0.140625
 30
4.000000119209288
 70
   192
  0
VERTEX
  5
1A5
330
196
100
AcDbEntity
  8
3D-EQPM
100
AcDbVertex
100
AcDbPolyFaceMeshVertex
 10
0.8009190559387205
 20
0.1400925926864147
 30
4.000000119209288
 70
   192
  0
VERTEX
  5
1A6
330
196
100
AcDbEntity
  8
3D-EQPM
100
AcDbVertex
100
AcDbPolyFaceMeshVertex
 10
0.8046874701976774
 20
0.1385316476225853
 30
4.000000119209288
 70
   192
  0
VERTEX
  5
1A7
330
196
100
AcDbEntity
  8
3D-EQPM
100
AcDbVertex
100
AcDbPolyFaceMeshVertex
 10
0.8079235553741453
 20
0.1360485479235649
 30
4.000000119209288
 70
   192
  0
VERTEX
  5
1A8
330
196
100
AcDbEntity
  8
3D-EQPM
100
AcDbVertex
100
AcDbPolyFaceMeshVertex
 10
0.8104066550731657
 20
0.1328124962747097
 30
4.000000119209288
 70
   192
  0
VERTEX
  5
1A9
330
196
100
AcDbEntity
  8
3D-EQPM
100
AcDbVertex
100
AcDbPolyFaceMeshVertex
 10
0.811967611312866
 20
0.1290440484881401
 30
4.000000119209288
 70
   192
  0
VERTEX
  5
1AA
330
196
100
AcDbEntity
  8
3D-EQPM
100
AcDbVertex
100
AcDbPolyFaceMeshVertex
 10
0.8125000298023222
 20
0.1250000037252903
 30
4.000000119209288
 70
   192
  0
VERTEX
  5
1AB
330
196
100
AcDbEntity
  8
3D-EQPM
100
AcDbVertex
100
AcDbPolyFaceMeshVertex
 10
0.811967611312866
 20
0.1209559477865696
 30
4.000000119209288
 70
   192
  0
VERTEX
  5
1AC
330
196
100
AcDbEntity
  8
3D-EQPM
100
AcDbVertex
100
AcDbPolyFaceMeshVertex
 10
0.8104066550731657
 20
0.1171875
 30
4.000000119209288
 70
   192
  0
VERTEX
  5
1AD
330
196
100
AcDbEntity
  8
3D-EQPM
100
AcDbVertex
100
AcDbPolyFaceMeshVertex
 10
0.8079235553741453
 20
0.1139514595270157
 30
4.000000119209288
 70
   192
  0
VERTEX
  5
1AE
330
196
100
AcDbEntity
  8
3D-EQPM
100
AcDbVertex
100
AcDbPolyFaceMeshVertex
 10
0.8046874701976774
 20
0.1114683486521244
 30
4.000000119209288
 70
   192
  0
VERTEX
  5
1AF
330
196
100
AcDbEntity
  8
3D-EQPM
100
AcDbVertex
100
AcDbPolyFaceMeshVertex
 10
0.8009190559387205
 20
0.109907403588295
 30
4.000000119209288
 70
   192
  0
VERTEX
  5
1B0
330
196
100
AcDbEntity
  8
3D-EQPM
100
AcDbVertex
100
AcDbPolyFaceMeshVertex
 10
0.796875
 20
0.1093749962747097
 30
4.000000119209288
 70
   192
  0
VERTEX
  5
1B1
330
196
100
AcDbEntity
  8
3D-EQPM
100
AcDbFaceRecord
 10
0.0
 20
0.0
 30
0.0
 70
   128
 71
   -12
 72
    15
 73
   -16
 74
    11
  0
VERTEX
  5
1B2
330
196
100
AcDbEntity
  8
3D-EQPM
100
AcDbFaceRecord
 10
0.0
 20
0.0
 30
0.0
 70
   128
 71
    13
 72
    14
 73
   -15
 74
    12
  0
VERTEX
  5
1B3
330
196
100
AcDbEntity
  8
3D-EQPM
100
AcDbFaceRecord
 10
0.0
 20
0.0
 30
0.0
 70
   128
 71
    18
 72
   -19
 73
     8
 74
    -9
  0
VERTEX
  5
1B4
330
196
100
AcDbEntity
  8
3D-EQPM
100
AcDbFaceRecord
 10
0.0
 20
0.0
 30
0.0
 70
   128
 71
    17
 72
   -18
 73
     9
 74
   -10
  0
VERTEX
  5
1B5
330
196
100
AcDbEntity
  8
3D-EQPM
100
AcDbFaceRecord
 10
0.0
 20
0.0
 30
0.0
 70
   128
 71
   -11
 72
    16
 73
   -17
 74
    10
  0
VERTEX
  5
1B6
330
196
100
AcDbEntity
  8
3D-EQPM
100
AcDbFaceRecord
 10
0.0
 20
0.0
 30
0.0
 70
   128
 71
     7
 72
    -8
 73
    19
 74
   -20
  0
VERTEX
  5
1B7
330
196
100
AcDbEntity
  8
3D-EQPM
100
AcDbFaceRecord
 10
0.0
 20
0.0
 30
0.0
 70
   128
 71
    22
 72
   -23
 73
     4
 74
    -5
  0
VERTEX
  5
1B8
330
196
100
AcDbEntity
  8
3D-EQPM
100
AcDbFaceRecord
 10
0.0
 20
0.0
 30
0.0
 70
   128
 71
    21
 72
   -22
 73
     5
 74
    -6
  0
VERTEX
  5
1B9
330
196
100
AcDbEntity
  8
3D-EQPM
100
AcDbFaceRecord
 10
0.0
 20
0.0
 30
0.0
 70
   128
 71
    25
 72
    26
 73
     1
 74
    -2
  0
VERTEX
  5
1BA
330
196
100
AcDbEntity
  8
3D-EQPM
100
AcDbFaceRecord
 10
0.0
 20
0.0
 30
0.0
 70
   128
 71
    24
 72
   -25
 73
     2
 74
    -3
  0
VERTEX
  5
1BB
330
196
100
AcDbEntity
  8
3D-EQPM
100
AcDbFaceRecord
 10
0.0
 20
0.0
 30
0.0
 70
   128
 71
    23
 72
   -24
 73
     3
 74
    -4
  0
VERTEX
  5
1BC
330
196
100
AcDbEntity
  8
3D-EQPM
100
AcDbFaceRecord
 10
0.0
 20
0.0
 30
0.0
 70
   128
 71
    20
 72
   -21
 73
     6
 74
    -7
  0
SEQEND
  5
1BD
330
196
100
AcDbEntity
  8
3D-EQPM
  0
POLYLINE
  5
1BE
330
A9
100
AcDbEntity
  8
3D-EQPM
100
AcDbPolyFaceMesh
 66
     1
 10
0.0
 20
0.0
 30
0.0
 70
    64
 71
    26
 72
    12
1001
REVIT
1002
{
1070
     4
1000
14409
1002
}
  0
VERTEX
  5
1BF
330
1BE
100
AcDbEntity
  8
3D-EQPM
100
AcDbVertex
100
AcDbPolyFaceMeshVertex
 10
0.796875
 20
0.140625
 30
0.0312500009313226
 70
   192
  0
VERTEX
  5
1C0
330
1BE
100
AcDbEntity
  8
3D-EQPM
100
AcDbVertex
100
AcDbPolyFaceMeshVertex
 10
0.7928309440612792
 20
0.1400925926864147
 30
0.0312500009313226
 70
   192
  0
VERTEX
  5
1C1
330
1BE
100
AcDbEntity
  8
3D-EQPM
100
AcDbVertex
100
AcDbPolyFaceMeshVertex
 10
0.7890625298023223
 20
0.1385316476225853
 30
0.0312500009313226
 70
   192
  0
VERTEX
  5
1C2
330
1BE
100
AcDbEntity
  8
3D-EQPM
100
AcDbVertex
100
AcDbPolyFaceMeshVertex
 10
0.7858264446258544
 20
0.1360485479235649
 30
0.0312500009313226
 70
   192
  0
VERTEX
  5
1C3
330
1BE
100
AcDbEntity
  8
3D-EQPM
100
AcDbVertex
100
AcDbPolyFaceMeshVertex
 10
0.7833433449268341
 20
0.1328124962747097
 30
0.0312500009313226
 70
   192
  0
VERTEX
  5
1C4
330
1BE
100
AcDbEntity
  8
3D-EQPM
100
AcDbVertex
100
AcDbPolyFaceMeshVertex
 10
0.7817823886871337
 20
0.1290440484881401
 30
0.0312500009313226
 70
   192
  0
VERTEX
  5
1C5
330
1BE
100
AcDbEntity
  8
3D-EQPM
100
AcDbVertex
100
AcDbPolyFaceMeshVertex
 10
0.7812499701976776
 20
0.1250000037252903
 30
0.0312500009313226
 70
   192
  0
VERTEX
  5
1C6
330
1BE
100
AcDbEntity
  8
3D-EQPM
100
AcDbVertex
100
AcDbPolyFaceMeshVertex
 10
0.7817823886871337
 20
0.1209559477865696
 30
0.0312500009313226
 70
   192
  0
VERTEX
  5
1C7
330
1BE
100
AcDbEntity
  8
3D-EQPM
100
AcDbVertex
100
AcDbPolyFaceMeshVertex
 10
0.7833433449268341
 20
0.1171875
 30
0.0312500009313226
 70
   192
  0
VERTEX
  5
1C8
330
1BE
100
AcDbEntity
  8
3D-EQPM
100
AcDbVertex
100
AcDbPolyFaceMeshVertex
 10
0.7858264446258544
 20
0.1139514595270157
 30
0.0312500009313226
 70
   192
  0
VERTEX
  5
1C9
330
1BE
100
AcDbEntity
  8
3D-EQPM
100
AcDbVertex
100
AcDbPolyFaceMeshVertex
 10
0.7890625298023223
 20
0.1114683486521244
 30
0.0312500009313226
 70
   192
  0
VERTEX
  5
1CA
330
1BE
100
AcDbEntity
  8
3D-EQPM
100
AcDbVertex
100
AcDbPolyFaceMeshVertex
 10
0.7928309440612792
 20
0.109907403588295
 30
0.0312500009313226
 70
   192
  0
VERTEX
  5
1CB
330
1BE
100
AcDbEntity
  8
3D-EQPM
100
AcDbVertex
100
AcDbPolyFaceMeshVertex
 10
0.796875
 20
0.1093749962747097
 30
0.0312500009313226
 70
   192
  0
VERTEX
  5
1CC
330
1BE
100
AcDbEntity
  8
3D-EQPM
100
AcDbVertex
100
AcDbPolyFaceMeshVertex
 10
0.796875
 20
0.1093749962747097
 30
4.000000119209288
 70
   192
  0
VERTEX
  5
1CD
330
1BE
100
AcDbEntity
  8
3D-EQPM
100
AcDbVertex
100
AcDbPolyFaceMeshVertex
 10
0.7928309440612792
 20
0.109907403588295
 30
4.000000119209288
 70
   192
  0
VERTEX
  5
1CE
330
1BE
100
AcDbEntity
  8
3D-EQPM
100
AcDbVertex
100
AcDbPolyFaceMeshVertex
 10
0.7890625298023223
 20
0.1114683486521244
 30
4.000000119209288
 70
   192
  0
VERTEX
  5
1CF
330
1BE
100
AcDbEntity
  8
3D-EQPM
100
AcDbVertex
100
AcDbPolyFaceMeshVertex
 10
0.7858264446258544
 20
0.1139514595270157
 30
4.000000119209288
 70
   192
  0
VERTEX
  5
1D0
330
1BE
100
AcDbEntity
  8
3D-EQPM
100
AcDbVertex
100
AcDbPolyFaceMeshVertex
 10
0.7833433449268341
 20
0.1171875
 30
4.000000119209288
 70
   192
  0
VERTEX
  5
1D1
330
1BE
100
AcDbEntity
  8
3D-EQPM
100
AcDbVertex
100
AcDbPolyFaceMeshVertex
 10
0.7817823886871337
 20
0.1209559477865696
 30
4.000000119209288
 70
   192
  0
VERTEX
  5
1D2
330
1BE
100
AcDbEntity
  8
3D-EQPM
100
AcDbVertex
100
AcDbPolyFaceMeshVertex
 10
0.7812499701976776
 20
0.1250000037252903
 30
4.000000119209288
 70
   192
  0
VERTEX
  5
1D3
330
1BE
100
AcDbEntity
  8
3D-EQPM
100
AcDbVertex
100
AcDbPolyFaceMeshVertex
 10
0.7817823886871337
 20
0.1290440484881401
 30
4.000000119209288
 70
   192
  0
VERTEX
  5
1D4
330
1BE
100
AcDbEntity
  8
3D-EQPM
100
AcDbVertex
100
AcDbPolyFaceMeshVertex
 10
0.7833433449268341
 20
0.1328124962747097
 30
4.000000119209288
 70
   192
  0
VERTEX
  5
1D5
330
1BE
100
AcDbEntity
  8
3D-EQPM
100
AcDbVertex
100
AcDbPolyFaceMeshVertex
 10
0.7858264446258544
 20
0.1360485479235649
 30
4.000000119209288
 70
   192
  0
VERTEX
  5
1D6
330
1BE
100
AcDbEntity
  8
3D-EQPM
100
AcDbVertex
100
AcDbPolyFaceMeshVertex
 10
0.7890625298023223
 20
0.1385316476225853
 30
4.000000119209288
 70
   192
  0
VERTEX
  5
1D7
330
1BE
100
AcDbEntity
  8
3D-EQPM
100
AcDbVertex
100
AcDbPolyFaceMeshVertex
 10
0.7928309440612792
 20
0.1400925926864147
 30
4.000000119209288
 70
   192
  0
VERTEX
  5
1D8
330
1BE
100
AcDbEntity
  8
3D-EQPM
100
AcDbVertex
100
AcDbPolyFaceMeshVertex
 10
0.796875
 20
0.140625
 30
4.000000119209288
 70
   192
  0
VERTEX
  5
1D9
330
1BE
100
AcDbEntity
  8
3D-EQPM
100
AcDbFaceRecord
 10
0.0
 20
0.0
 30
0.0
 70
   128
 71
   -12
 72
    15
 73
   -16
 74
    11
  0
VERTEX
  5
1DA
330
1BE
100
AcDbEntity
  8
3D-EQPM
100
AcDbFaceRecord
 10
0.0
 20
0.0
 30
0.0
 70
   128
 71
    13
 72
    14
 73
   -15
 74
    12
  0
VERTEX
  5
1DB
330
1BE
100
AcDbEntity
  8
3D-EQPM
100
AcDbFaceRecord
 10
0.0
 20
0.0
 30
0.0
 70
   128
 71
    -9
 72
    18
 73
   -19
 74
     8
  0
VERTEX
  5
1DC
330
1BE
100
AcDbEntity
  8
3D-EQPM
100
AcDbFaceRecord
 10
0.0
 20
0.0
 30
0.0
 70
   128
 71
    17
 72
   -18
 73
     9
 74
   -10
  0
VERTEX
  5
1DD
330
1BE
100
AcDbEntity
  8
3D-EQPM
100
AcDbFaceRecord
 10
0.0
 20
0.0
 30
0.0
 70
   128
 71
    16
 72
   -17
 73
    10
 74
   -11
  0
VERTEX
  5
1DE
330
1BE
100
AcDbEntity
  8
3D-EQPM
100
AcDbFaceRecord
 10
0.0
 20
0.0
 30
0.0
 70
   128
 71
   -20
 72
     7
 73
    -8
 74
    19
  0
VERTEX
  5
1DF
330
1BE
100
AcDbEntity
  8
3D-EQPM
100
AcDbFaceRecord
 10
0.0
 20
0.0
 30
0.0
 70
   128
 71
    22
 72
   -23
 73
     4
 74
    -5
  0
VERTEX
  5
1E0
330
1BE
100
AcDbEntity
  8
3D-EQPM
100
AcDbFaceRecord
 10
0.0
 20
0.0
 30
0.0
 70
   128
 71
    21
 72
   -22
 73
     5
 74
    -6
  0
VERTEX
  5
1E1
330
1BE
100
AcDbEntity
  8
3D-EQPM
100
AcDbFaceRecord
 10
0.0
 20
0.0
 30
0.0
 70
   128
 71
    25
 72
    26
 73
     1
 74
    -2
  0
VERTEX
  5
1E2
330
1BE
100
AcDbEntity
  8
3D-EQPM
100
AcDbFaceRecord
 10
0.0
 20
0.0
 30
0.0
 70
   128
 71
    24
 72
   -25
 73
     2
 74
    -3
  0
VERTEX
  5
1E3
330
1BE
100
AcDbEntity
  8
3D-EQPM
100
AcDbFaceRecord
 10
0.0
 20
0.0
 30
0.0
 70
   128
 71
    23
 72
   -24
 73
     3
 74
    -4
  0
VERTEX
  5
1E4
330
1BE
100
AcDbEntity
  8
3D-EQPM
100
AcDbFaceRecord
 10
0.0
 20
0.0
 30
0.0
 70
   128
 71
    20
 72
   -21
 73
     6
 74
    -7
  0
SEQEND
  5
1E5
330
1BE
100
AcDbEntity
  8
3D-EQPM
  0
POLYLINE
  5
1E6
330
A9
100
AcDbEntity
  8
3D-EQPM
100
AcDbPolyFaceMesh
 66
     1
 10
0.0
 20
0.0
 30
0.0
 70
    64
 71
    24
 72
    13
1001
REVIT
1002
{
1070
     4
1000
14409
1002
}
  0
VERTEX
  5
1E7
330
1E6
100
AcDbEntity
  8
3D-EQPM
100
AcDbVertex
100
AcDbPolyFaceMeshVertex
 10
0.796875
 20
0.140625
 30
4.000000119209288
 70
   192
  0
VERTEX
  5
1E8
330
1E6
100
AcDbEntity
  8
3D-EQPM
100
AcDbVertex
100
AcDbPolyFaceMeshVertex
 10
0.7928309440612792
 20
0.1400925926864147
 30
4.000000119209288
 70
   192
  0
VERTEX
  5
1E9
330
1E6
100
AcDbEntity
  8
3D-EQPM
100
AcDbVertex
100
AcDbPolyFaceMeshVertex
 10
0.7890625298023223
 20
0.1385316476225853
 30
4.000000119209288
 70
   192
  0
VERTEX
  5
1EA
330
1E6
100
AcDbEntity
  8
3D-EQPM
100
AcDbVertex
100
AcDbPolyFaceMeshVertex
 10
0.7858264446258544
 20
0.1360485479235649
 30
4.000000119209288
 70
   192
  0
VERTEX
  5
1EB
330
1E6
100
AcDbEntity
  8
3D-EQPM
100
AcDbVertex
100
AcDbPolyFaceMeshVertex
 10
0.7833433449268341
 20
0.1328124962747097
 30
4.000000119209288
 70
   192
  0
VERTEX
  5
1EC
330
1E6
100
AcDbEntity
  8
3D-EQPM
100
AcDbVertex
100
AcDbPolyFaceMeshVertex
 10
0.7817823886871337
 20
0.1290440484881401
 30
4.000000119209288
 70
   192
  0
VERTEX
  5
1ED
330
1E6
100
AcDbEntity
  8
3D-EQPM
100
AcDbVertex
100
AcDbPolyFaceMeshVertex
 10
0.7812499701976776
 20
0.1250000037252903
 30
4.000000119209288
 70
   192
  0
VERTEX
  5
1EE
330
1E6
100
AcDbEntity
  8
3D-EQPM
100
AcDbVertex
100
AcDbPolyFaceMeshVertex
 10
0.7817823886871337
 20
0.1209559477865696
 30
4.000000119209288
 70
   192
  0
VERTEX
  5
1EF
330
1E6
100
AcDbEntity
  8
3D-EQPM
100
AcDbVertex
100
AcDbPolyFaceMeshVertex
 10
0.7833433449268341
 20
0.1171875
 30
4.000000119209288
 70
   192
  0
VERTEX
  5
1F0
330
1E6
100
AcDbEntity
  8
3D-EQPM
100
AcDbVertex
100
AcDbPolyFaceMeshVertex
 10
0.7858264446258544
 20
0.1139514595270157
 30
4.000000119209288
 70
   192
  0
VERTEX
  5
1F1
330
1E6
100
AcDbEntity
  8
3D-EQPM
100
AcDbVertex
100
AcDbPolyFaceMeshVertex
 10
0.7890625298023223
 20
0.1114683486521244
 30
4.000000119209288
 70
   192
  0
VERTEX
  5
1F2
330
1E6
100
AcDbEntity
  8
3D-EQPM
100
AcDbVertex
100
AcDbPolyFaceMeshVertex
 10
0.7928309440612792
 20
0.109907403588295
 30
4.000000119209288
 70
   192
  0
VERTEX
  5
1F3
330
1E6
100
AcDbEntity
  8
3D-EQPM
100
AcDbVertex
100
AcDbPolyFaceMeshVertex
 10
0.796875
 20
0.1093749962747097
 30
4.000000119209288
 70
   192
  0
VERTEX
  5
1F4
330
1E6
100
AcDbEntity
  8
3D-EQPM
100
AcDbVertex
100
AcDbPolyFaceMeshVertex
 10
0.8009190559387205
 20
0.109907403588295
 30
4.000000119209288
 70
   192
  0
VERTEX
  5
1F5
330
1E6
100
AcDbEntity
  8
3D-EQPM
100
AcDbVertex
100
AcDbPolyFaceMeshVertex
 10
0.8046874701976774
 20
0.1114683486521244
 30
4.000000119209288
 70
   192
  0
VERTEX
  5
1F6
330
1E6
100
AcDbEntity
  8
3D-EQPM
100
AcDbVertex
100
AcDbPolyFaceMeshVertex
 10
0.8079235553741453
 20
0.1139514595270157
 30
4.000000119209288
 70
   192
  0
VERTEX
  5
1F7
330
1E6
100
AcDbEntity
  8
3D-EQPM
100
AcDbVertex
100
AcDbPolyFaceMeshVertex
 10
0.8104066550731657
 20
0.1171875
 30
4.000000119209288
 70
   192
  0
VERTEX
  5
1F8
330
1E6
100
AcDbEntity
  8
3D-EQPM
100
AcDbVertex
100
AcDbPolyFaceMeshVertex
 10
0.811967611312866
 20
0.1209559477865696
 30
4.000000119209288
 70
   192
  0
VERTEX
  5
1F9
330
1E6
100
AcDbEntity
  8
3D-EQPM
100
AcDbVertex
100
AcDbPolyFaceMeshVertex
 10
0.8125000298023222
 20
0.1250000037252903
 30
4.000000119209288
 70
   192
  0
VERTEX
  5
1FA
330
1E6
100
AcDbEntity
  8
3D-EQPM
100
AcDbVertex
100
AcDbPolyFaceMeshVertex
 10
0.811967611312866
 20
0.1290440484881401
 30
4.000000119209288
 70
   192
  0
VERTEX
  5
1FB
330
1E6
100
AcDbEntity
  8
3D-EQPM
100
AcDbVertex
100
AcDbPolyFaceMeshVertex
 10
0.8104066550731657
 20
0.1328124962747097
 30
4.000000119209288
 70
   192
  0
VERTEX
  5
1FC
330
1E6
100
AcDbEntity
  8
3D-EQPM
100
AcDbVertex
100
AcDbPolyFaceMeshVertex
 10
0.8079235553741453
 20
0.1360485479235649
 30
4.000000119209288
 70
   192
  0
VERTEX
  5
1FD
330
1E6
100
AcDbEntity
  8
3D-EQPM
100
AcDbVertex
100
AcDbPolyFaceMeshVertex
 10
0.8046874701976774
 20
0.1385316476225853
 30
4.000000119209288
 70
   192
  0
VERTEX
  5
1FE
330
1E6
100
AcDbEntity
  8
3D-EQPM
100
AcDbVertex
100
AcDbPolyFaceMeshVertex
 10
0.8009190559387205
 20
0.1400925926864147
 30
4.000000119209288
 70
   192
  0
VERTEX
  5
1FF
330
1E6
100
AcDbEntity
  8
3D-EQPM
100
AcDbFaceRecord
 10
0.0
 20
0.0
 30
0.0
 70
   128
 71
     7
 72
     8
 73
    -9
 74
   -16
  0
VERTEX
  5
200
330
1E6
100
AcDbEntity
  8
3D-EQPM
100
AcDbFaceRecord
 10
0.0
 20
0.0
 30
0.0
 70
   128
 71
    -7
 72
   -22
 73
     2
 74
    -3
  0
VERTEX
  5
201
330
1E6
100
AcDbEntity
  8
3D-EQPM
100
AcDbFaceRecord
 10
0.0
 20
0.0
 30
0.0
 70
   128
 71
    11
 72
   -12
 73
     9
 74
    10
  0
VERTEX
  5
202
330
1E6
100
AcDbEntity
  8
3D-EQPM
100
AcDbFaceRecord
 10
0.0
 20
0.0
 30
0.0
 70
   128
 71
     4
 72
     5
 73
     6
 74
    -7
  0
VERTEX
  5
203
330
1E6
100
AcDbEntity
  8
3D-EQPM
100
AcDbFaceRecord
 10
0.0
 20
0.0
 30
0.0
 70
   128
 71
    -7
 72
     3
 73
    -4
  0
VERTEX
  5
204
330
1E6
100
AcDbEntity
  8
3D-EQPM
100
AcDbFaceRecord
 10
0.0
 20
0.0
 30
0.0
 70
   128
 71
    24
 72
     1
 73
    -2
 74
   -22
  0
VERTEX
  5
205
330
1E6
100
AcDbEntity
  8
3D-EQPM
100
AcDbFaceRecord
 10
0.0
 20
0.0
 30
0.0
 70
   128
 71
   -16
 72
    -9
 73
    12
 74
   -13
  0
VERTEX
  5
206
330
1E6
100
AcDbEntity
  8
3D-EQPM
100
AcDbFaceRecord
 10
0.0
 20
0.0
 30
0.0
 70
   128
 71
   -16
 72
    13
 73
    14
 74
    15
  0
VERTEX
  5
207
330
1E6
100
AcDbEntity
  8
3D-EQPM
100
AcDbFaceRecord
 10
0.0
 20
0.0
 30
0.0
 70
   128
 71
    16
 72
    17
 73
   -18
  0
VERTEX
  5
208
330
1E6
100
AcDbEntity
  8
3D-EQPM
100
AcDbFaceRecord
 10
0.0
 20
0.0
 30
0.0
 70
   128
 71
   -19
 72
    -7
 73
   -16
 74
    18
  0
VERTEX
  5
209
330
1E6
100
AcDbEntity
  8
3D-EQPM
100
AcDbFaceRecord
 10
0.0
 20
0.0
 30
0.0
 70
   128
 71
   -24
 72
    22
 73
    23
  0
VERTEX
  5
20A
330
1E6
100
AcDbEntity
  8
3D-EQPM
100
AcDbFaceRecord
 10
0.0
 20
0.0
 30
0.0
 70
   128
 71
    19
 72
    20
 73
    21
 74
   -22
  0
VERTEX
  5
20B
330
1E6
100
AcDbEntity
  8
3D-EQPM
100
AcDbFaceRecord
 10
0.0
 20
0.0
 30
0.0
 70
   128
 71
   -19
 72
   -22
 73
    -7
  0
SEQEND
  5
20C
330
1E6
100
AcDbEntity
  8
3D-EQPM
  0
POLYLINE
  5
20D
330
A9
100
AcDbEntity
  8
3D-EQPM
100
AcDbPolyFaceMesh
 66
     1
 10
0.0
 20
0.0
 30
0.0
 70
    64
 71
    24
 72
    22
1001
REVIT
1002
{
1070
     4
1000
14409
1002
}
  0
VERTEX
  5
20E
330
20D
100
AcDbEntity
  8
3D-EQPM
100
AcDbVertex
100
AcDbPolyFaceMeshVertex
 10
0.5936121940612792
 20
0.1393539123237133
 30
0.0265861339867115
 70
   192
  0
VERTEX
  5
20F
330
20D
100
AcDbEntity
  8
3D-EQPM
100
AcDbVertex
100
AcDbPolyFaceMeshVertex
 10
0.5898437350988388
 20
0.1378693655133247
 30
0.0270684901624918
 70
   192
  0
VERTEX
  5
210
330
20D
100
AcDbEntity
  8
3D-EQPM
100
AcDbVertex
100
AcDbPolyFaceMeshVertex
 10
0.5866076946258544
 20
0.1355077922344207
 30
0.0278358114883304
 70
   192
  0
VERTEX
  5
211
330
20D
100
AcDbEntity
  8
3D-EQPM
100
AcDbVertex
100
AcDbPolyFaceMeshVertex
 10
0.5841245949268341
 20
0.1324301250278949
 30
0.0288358060643077
 70
   192
  0
VERTEX
  5
212
330
20D
100
AcDbEntity
  8
3D-EQPM
100
AcDbVertex
100
AcDbPolyFaceMeshVertex
 10
0.5825636386871337
 20
0.1288461126387119
 30
0.030000320635736
 70
   192
  0
VERTEX
  5
213
330
20D
100
AcDbEntity
  8
3D-EQPM
100
AcDbVertex
100
AcDbPolyFaceMeshVertex
 10
0.5820312649011611
 20
0.1250000037252903
 30
0.0312500009313226
 70
   192
  0
VERTEX
  5
214
330
20D
100
AcDbEntity
  8
3D-EQPM
100
AcDbVertex
100
AcDbPolyFaceMeshVertex
 10
0.5825636386871337
 20
0.1211538836359977
 30
0.0324996784329414
 70
   192
  0
VERTEX
  5
215
330
20D
100
AcDbEntity
  8
3D-EQPM
100
AcDbVertex
100
AcDbPolyFaceMeshVertex
 10
0.5841245949268341
 20
0.1175698712468147
 30
0.0336641957983375
 70
   192
  0
VERTEX
  5
216
330
20D
100
AcDbEntity
  8
3D-EQPM
100
AcDbVertex
100
AcDbPolyFaceMeshVertex
 10
0.5866076946258544
 20
0.1144922152161598
 30
0.0346641875803471
 70
   192
  0
VERTEX
  5
217
330
20D
100
AcDbEntity
  8
3D-EQPM
100
AcDbVertex
100
AcDbPolyFaceMeshVertex
 10
0.5898437350988388
 20
0.1121306419372558
 30
0.0354315089061856
 70
   192
  0
VERTEX
  5
218
330
20D
100
AcDbEntity
  8
3D-EQPM
100
AcDbVertex
100
AcDbPolyFaceMeshVertex
 10
0.5936121940612792
 20
0.1106460951268673
 30
0.0359138678759337
 70
   192
  0
VERTEX
  5
219
330
20D
100
AcDbEntity
  8
3D-EQPM
100
AcDbVertex
100
AcDbPolyFaceMeshVertex
 10
0.59765625
 20
0.1101397387683391
 30
0.0360783906653524
 70
   192
  0
VERTEX
  5
21A
330
20D
100
AcDbEntity
  8
3D-EQPM
100
AcDbVertex
100
AcDbPolyFaceMeshVertex
 10
0.6017003059387207
 20
0.1106460951268673
 30
0.0359138678759337
 70
   192
  0
VERTEX
  5
21B
330
20D
100
AcDbEntity
  8
3D-EQPM
100
AcDbVertex
100
AcDbPolyFaceMeshVertex
 10
0.6054687649011611
 20
0.1121306419372558
 30
0.0354315089061856
 70
   192
  0
VERTEX
  5
21C
330
20D
100
AcDbEntity
  8
3D-EQPM
100
AcDbVertex
100
AcDbPolyFaceMeshVertex
 10
0.6087048053741455
 20
0.1144922152161598
 30
0.0346641875803471
 70
   192
  0
VERTEX
  5
21D
330
20D
100
AcDbEntity
  8
3D-EQPM
100
AcDbVertex
100
AcDbPolyFaceMeshVertex
 10
0.6111879050731658
 20
0.1175698712468147
 30
0.0336641957983375
 70
   192
  0
VERTEX
  5
21E
330
20D
100
AcDbEntity
  8
3D-EQPM
100
AcDbVertex
100
AcDbPolyFaceMeshVertex
 10
0.6127488613128662
 20
0.1211538836359977
 30
0.0324996784329414
 70
   192
  0
VERTEX
  5
21F
330
20D
100
AcDbEntity
  8
3D-EQPM
100
AcDbVertex
100
AcDbPolyFaceMeshVertex
 10
0.6132812350988388
 20
0.1250000037252903
 30
0.0312500009313226
 70
   192
  0
VERTEX
  5
220
330
20D
100
AcDbEntity
  8
3D-EQPM
100
AcDbVertex
100
AcDbPolyFaceMeshVertex
 10
0.6127488613128662
 20
0.1288461126387119
 30
0.030000320635736
 70
   192
  0
VERTEX
  5
221
330
20D
100
AcDbEntity
  8
3D-EQPM
100
AcDbVertex
100
AcDbPolyFaceMeshVertex
 10
0.6111879050731658
 20
0.1324301250278949
 30
0.0288358060643077
 70
   192
  0
VERTEX
  5
222
330
20D
100
AcDbEntity
  8
3D-EQPM
100
AcDbVertex
100
AcDbPolyFaceMeshVertex
 10
0.6087048053741455
 20
0.1355077922344207
 30
0.0278358114883304
 70
   192
  0
VERTEX
  5
223
330
20D
100
AcDbEntity
  8
3D-EQPM
100
AcDbVertex
100
AcDbPolyFaceMeshVertex
 10
0.6054687649011611
 20
0.1378693655133247
 30
0.0270684901624918
 70
   192
  0
VERTEX
  5
224
330
20D
100
AcDbEntity
  8
3D-EQPM
100
AcDbVertex
100
AcDbPolyFaceMeshVertex
 10
0.6017003059387207
 20
0.1393539123237133
 30
0.0265861339867115
 70
   192
  0
VERTEX
  5
225
330
20D
100
AcDbEntity
  8
3D-EQPM
100
AcDbVertex
100
AcDbPolyFaceMeshVertex
 10
0.59765625
 20
0.1398602575063705
 30
0.0264216084033251
 70
   192
  0
VERTEX
  5
226
330
20D
100
AcDbEntity
  8
3D-EQPM
100
AcDbFaceRecord
 10
0.0
 20
0.0
 30
0.0
 70
   128
 71
     7
 72
     6
 73
    -5
  0
VERTEX
  5
227
330
20D
100
AcDbEntity
  8
3D-EQPM
100
AcDbFaceRecord
 10
0.0
 20
0.0
 30
0.0
 70
   128
 71
    -7
 72
    -4
 73
     8
  0
VERTEX
  5
228
330
20D
100
AcDbEntity
  8
3D-EQPM
100
AcDbFaceRecord
 10
0.0
 20
0.0
 30
0.0
 70
   128
 71
   -10
 72
    -8
 73
    -4
  0
VERTEX
  5
229
330
20D
100
AcDbEntity
  8
3D-EQPM
100
AcDbFaceRecord
 10
0.0
 20
0.0
 30
0.0
 70
   128
 71
     9
 72
    -8
 73
    10
  0
VERTEX
  5
22A
330
20D
100
AcDbEntity
  8
3D-EQPM
100
AcDbFaceRecord
 10
0.0
 20
0.0
 30
0.0
 70
   128
 71
   -10
 72
    -4
 73
   -17
  0
VERTEX
  5
22B
330
20D
100
AcDbEntity
  8
3D-EQPM
100
AcDbFaceRecord
 10
0.0
 20
0.0
 30
0.0
 70
   128
 71
     3
 72
    -2
 73
     4
  0
VERTEX
  5
22C
330
20D
100
AcDbEntity
  8
3D-EQPM
100
AcDbFaceRecord
 10
0.0
 20
0.0
 30
0.0
 70
   128
 71
    -7
 72
     5
 73
    -4
  0
VERTEX
  5
22D
330
20D
100
AcDbEntity
  8
3D-EQPM
100
AcDbFaceRecord
 10
0.0
 20
0.0
 30
0.0
 70
   128
 71
     2
 72
    -1
 73
    -4
  0
VERTEX
  5
22E
330
20D
100
AcDbEntity
  8
3D-EQPM
100
AcDbFaceRecord
 10
0.0
 20
0.0
 30
0.0
 70
   128
 71
   -24
 72
    -4
 73
     1
  0
VERTEX
  5
22F
330
20D
100
AcDbEntity
  8
3D-EQPM
100
AcDbFaceRecord
 10
0.0
 20
0.0
 30
0.0
 70
   128
 71
   -24
 72
   -21
 73
    -4
  0
VERTEX
  5
230
330
20D
100
AcDbEntity
  8
3D-EQPM
100
AcDbFaceRecord
 10
0.0
 20
0.0
 30
0.0
 70
   128
 71
    11
 72
   -10
 73
   -14
  0
VERTEX
  5
231
330
20D
100
AcDbEntity
  8
3D-EQPM
100
AcDbFaceRecord
 10
0.0
 20
0.0
 30
0.0
 70
   128
 71
    14
 72
    13
 73
   -12
  0
VERTEX
  5
232
330
20D
100
AcDbEntity
  8
3D-EQPM
100
AcDbFaceRecord
 10
0.0
 20
0.0
 30
0.0
 70
   128
 71
   -10
 72
   -17
 73
   -14
  0
VERTEX
  5
233
330
20D
100
AcDbEntity
  8
3D-EQPM
100
AcDbFaceRecord
 10
0.0
 20
0.0
 30
0.0
 70
   128
 71
    17
 72
    16
 73
   -15
  0
VERTEX
  5
234
330
20D
100
AcDbEntity
  8
3D-EQPM
100
AcDbFaceRecord
 10
0.0
 20
0.0
 30
0.0
 70
   128
 71
   -14
 72
   -17
 73
    15
  0
VERTEX
  5
235
330
20D
100
AcDbEntity
  8
3D-EQPM
100
AcDbFaceRecord
 10
0.0
 20
0.0
 30
0.0
 70
   128
 71
   -19
 72
   -17
 73
    -4
  0
VERTEX
  5
236
330
20D
100
AcDbEntity
  8
3D-EQPM
100
AcDbFaceRecord
 10
0.0
 20
0.0
 30
0.0
 70
   128
 71
    22
 72
   -21
 73
    23
  0
VERTEX
  5
237
330
20D
100
AcDbEntity
  8
3D-EQPM
100
AcDbFaceRecord
 10
0.0
 20
0.0
 30
0.0
 70
   128
 71
   -23
 72
   -21
 73
    24
  0
VERTEX
  5
238
330
20D
100
AcDbEntity
  8
3D-EQPM
100
AcDbFaceRecord
 10
0.0
 20
0.0
 30
0.0
 70
   128
 71
    20
 72
   -19
 73
    21
  0
VERTEX
  5
239
330
20D
100
AcDbEntity
  8
3D-EQPM
100
AcDbFaceRecord
 10
0.0
 20
0.0
 30
0.0
 70
   128
 71
    -4
 72
   -21
 73
   -19
  0
VERTEX
  5
23A
330
20D
100
AcDbEntity
  8
3D-EQPM
100
AcDbFaceRecord
 10
0.0
 20
0.0
 30
0.0
 70
   128
 71
    19
 72
    18
 73
   -17
  0
VERTEX
  5
23B
330
20D
100
AcDbEntity
  8
3D-EQPM
100
AcDbFaceRecord
 10
0.0
 20
0.0
 30
0.0
 70
   128
 71
   -14
 72
    12
 73
   -11
  0
SEQEND
  5
23C
330
20D
100
AcDbEntity
  8
3D-EQPM
  0
POLYLINE
  5
23D
330
A9
100
AcDbEntity
  8
3D-EQPM
100
AcDbPolyFaceMesh
 66
     1
 10
0.0
 20
0.0
 30
0.0
 70
    64
 71
    24
 72
    22
1001
REVIT
1002
{
1070
     4
1000
14409
1002
}
  0
VERTEX
  5
23E
330
23D
100
AcDbEntity
  8
3D-EQPM
100
AcDbVertex
100
AcDbPolyFaceMeshVertex
 10
0.59765625
 20
1.354341477155685
 30
3.7642103433609
 70
   192
  0
VERTEX
  5
23F
330
23D
100
AcDbEntity
  8
3D-EQPM
100
AcDbVertex
100
AcDbPolyFaceMeshVertex
 10
0.5936121940612792
 20
1.353835076093673
 30
3.76437485218048
 70
   192
  0
VERTEX
  5
240
330
23D
100
AcDbEntity
  8
3D-EQPM
100
AcDbVertex
100
AcDbPolyFaceMeshVertex
 10
0.5898437350988388
 20
1.352350562810897
 30
3.764857292175292
 70
   192
  0
VERTEX
  5
241
330
23D
100
AcDbEntity
  8
3D-EQPM
100
AcDbVertex
100
AcDbPolyFaceMeshVertex
 10
0.5866076946258544
 20
1.349988967180251
 30
3.765624403953551
 70
   192
  0
VERTEX
  5
242
330
23D
100
AcDbEntity
  8
3D-EQPM
100
AcDbVertex
100
AcDbPolyFaceMeshVertex
 10
0.5841245949268341
 20
1.346911311149596
 30
3.766624689102172
 70
   192
  0
VERTEX
  5
243
330
23D
100
AcDbEntity
  8
3D-EQPM
100
AcDbVertex
100
AcDbPolyFaceMeshVertex
 10
0.5825636386871337
 20
1.343327343463897
 30
3.767789125442504
 70
   192
  0
VERTEX
  5
244
330
23D
100
AcDbEntity
  8
3D-EQPM
100
AcDbVertex
100
AcDbPolyFaceMeshVertex
 10
0.5820312649011611
 20
1.339481145143508
 30
3.769038677215575
 70
   192
  0
VERTEX
  5
245
330
23D
100
AcDbEntity
  8
3D-EQPM
100
AcDbVertex
100
AcDbPolyFaceMeshVertex
 10
0.5825636386871337
 20
1.335635036230087
 30
3.770288586616515
 70
   192
  0
VERTEX
  5
246
330
23D
100
AcDbEntity
  8
3D-EQPM
100
AcDbVertex
100
AcDbPolyFaceMeshVertex
 10
0.5841245949268341
 20
1.332051068544387
 30
3.771453022956847
 70
   192
  0
VERTEX
  5
247
330
23D
100
AcDbEntity
  8
3D-EQPM
100
AcDbVertex
100
AcDbPolyFaceMeshVertex
 10
0.5866076946258544
 20
1.328973412513732
 30
3.772452950477599
 70
   192
  0
VERTEX
  5
248
330
23D
100
AcDbEntity
  8
3D-EQPM
100
AcDbVertex
100
AcDbPolyFaceMeshVertex
 10
0.5898437350988388
 20
1.326611816883086
 30
3.773220419883727
 70
   192
  0
VERTEX
  5
249
330
23D
100
AcDbEntity
  8
3D-EQPM
100
AcDbVertex
100
AcDbPolyFaceMeshVertex
 10
0.5936121940612792
 20
1.325127303600311
 30
3.77370250225067
 70
   192
  0
VERTEX
  5
24A
330
23D
100
AcDbEntity
  8
3D-EQPM
100
AcDbVertex
100
AcDbPolyFaceMeshVertex
 10
0.59765625
 20
1.324620902538299
 30
3.773867011070251
 70
   192
  0
VERTEX
  5
24B
330
23D
100
AcDbEntity
  8
3D-EQPM
100
AcDbVertex
100
AcDbPolyFaceMeshVertex
 10
0.6017003059387207
 20
1.325127303600311
 30
3.77370250225067
 70
   192
  0
VERTEX
  5
24C
330
23D
100
AcDbEntity
  8
3D-EQPM
100
AcDbVertex
100
AcDbPolyFaceMeshVertex
 10
0.6054687649011611
 20
1.326611816883086
 30
3.773220419883727
 70
   192
  0
VERTEX
  5
24D
330
23D
100
AcDbEntity
  8
3D-EQPM
100
AcDbVertex
100
AcDbPolyFaceMeshVertex
 10
0.6087048053741455
 20
1.328973412513732
 30
3.772452950477599
 70
   192
  0
VERTEX
  5
24E
330
23D
100
AcDbEntity
  8
3D-EQPM
100
AcDbVertex
100
AcDbPolyFaceMeshVertex
 10
0.6111879050731658
 20
1.332051068544387
 30
3.771453022956847
 70
   192
  0
VERTEX
  5
24F
330
23D
100
AcDbEntity
  8
3D-EQPM
100
AcDbVertex
100
AcDbPolyFaceMeshVertex
 10
0.6127488613128662
 20
1.335635036230087
 30
3.770288586616515
 70
   192
  0
VERTEX
  5
250
330
23D
100
AcDbEntity
  8
3D-EQPM
100
AcDbVertex
100
AcDbPolyFaceMeshVertex
 10
0.6132812350988388
 20
1.339481145143508
 30
3.769038677215575
 70
   192
  0
VERTEX
  5
251
330
23D
100
AcDbEntity
  8
3D-EQPM
100
AcDbVertex
100
AcDbPolyFaceMeshVertex
 10
0.6127488613128662
 20
1.343327343463897
 30
3.767789125442504
 70
   192
  0
VERTEX
  5
252
330
23D
100
AcDbEntity
  8
3D-EQPM
100
AcDbVertex
100
AcDbPolyFaceMeshVertex
 10
0.6111879050731658
 20
1.346911311149596
 30
3.766624689102172
 70
   192
  0
VERTEX
  5
253
330
23D
100
AcDbEntity
  8
3D-EQPM
100
AcDbVertex
100
AcDbPolyFaceMeshVertex
 10
0.6087048053741455
 20
1.349988967180251
 30
3.765624403953551
 70
   192
  0
VERTEX
  5
254
330
23D
100
AcDbEntity
  8
3D-EQPM
100
AcDbVertex
100
AcDbPolyFaceMeshVertex
 10
0.6054687649011611
 20
1.352350562810897
 30
3.764857292175292
 70
   192
  0
VERTEX
  5
255
330
23D
100
AcDbEntity
  8
3D-EQPM
100
AcDbVertex
100
AcDbPolyFaceMeshVertex
 10
0.6017003059387207
 20
1.353835076093673
 30
3.76437485218048
 70
   192
  0
VERTEX
  5
256
330
23D
100
AcDbEntity
  8
3D-EQPM
100
AcDbFaceRecord
 10
0.0
 20
0.0
 30
0.0
 70
   128
 71
     6
 72
     7
 73
    -8
  0
VERTEX
  5
257
330
23D
100
AcDbEntity
  8
3D-EQPM
100
AcDbFaceRecord
 10
0.0
 20
0.0
 30
0.0
 70
   128
 71
    -9
 72
    -6
 73
     8
  0
VERTEX
  5
258
330
23D
100
AcDbEntity
  8
3D-EQPM
100
AcDbFaceRecord
 10
0.0
 20
0.0
 30
0.0
 70
   128
 71
    10
 72
    11
 73
   -12
  0
VERTEX
  5
259
330
23D
100
AcDbEntity
  8
3D-EQPM
100
AcDbFaceRecord
 10
0.0
 20
0.0
 30
0.0
 70
   128
 71
     9
 72
   -10
 73
   -13
  0
VERTEX
  5
25A
330
23D
100
AcDbEntity
  8
3D-EQPM
100
AcDbFaceRecord
 10
0.0
 20
0.0
 30
0.0
 70
   128
 71
   -13
 72
    -1
 73
    -9
  0
VERTEX
  5
25B
330
23D
100
AcDbEntity
  8
3D-EQPM
100
AcDbFaceRecord
 10
0.0
 20
0.0
 30
0.0
 70
   128
 71
    -5
 72
    -1
 73
     4
  0
VERTEX
  5
25C
330
23D
100
AcDbEntity
  8
3D-EQPM
100
AcDbFaceRecord
 10
0.0
 20
0.0
 30
0.0
 70
   128
 71
    -1
 72
     5
 73
    -6
  0
VERTEX
  5
25D
330
23D
100
AcDbEntity
  8
3D-EQPM
100
AcDbFaceRecord
 10
0.0
 20
0.0
 30
0.0
 70
   128
 71
    -4
 72
     2
 73
     3
  0
VERTEX
  5
25E
330
23D
100
AcDbEntity
  8
3D-EQPM
100
AcDbFaceRecord
 10
0.0
 20
0.0
 30
0.0
 70
   128
 71
    -2
 72
    -4
 73
     1
  0
VERTEX
  5
25F
330
23D
100
AcDbEntity
  8
3D-EQPM
100
AcDbFaceRecord
 10
0.0
 20
0.0
 30
0.0
 70
   128
 71
    -6
 72
    -9
 73
    -1
  0
VERTEX
  5
260
330
23D
100
AcDbEntity
  8
3D-EQPM
100
AcDbFaceRecord
 10
0.0
 20
0.0
 30
0.0
 70
   128
 71
   -13
 72
   -10
 73
    12
  0
VERTEX
  5
261
330
23D
100
AcDbEntity
  8
3D-EQPM
100
AcDbFaceRecord
 10
0.0
 20
0.0
 30
0.0
 70
   128
 71
   -18
 72
    13
 73
   -14
  0
VERTEX
  5
262
330
23D
100
AcDbEntity
  8
3D-EQPM
100
AcDbFaceRecord
 10
0.0
 20
0.0
 30
0.0
 70
   128
 71
   -16
 72
    14
 73
    15
  0
VERTEX
  5
263
330
23D
100
AcDbEntity
  8
3D-EQPM
100
AcDbFaceRecord
 10
0.0
 20
0.0
 30
0.0
 70
   128
 71
    17
 72
   -18
 73
   -14
  0
VERTEX
  5
264
330
23D
100
AcDbEntity
  8
3D-EQPM
100
AcDbFaceRecord
 10
0.0
 20
0.0
 30
0.0
 70
   128
 71
   -17
 72
   -14
 73
    16
  0
VERTEX
  5
265
330
23D
100
AcDbEntity
  8
3D-EQPM
100
AcDbFaceRecord
 10
0.0
 20
0.0
 30
0.0
 70
   128
 71
   -20
 72
    -1
 73
   -18
  0
VERTEX
  5
266
330
23D
100
AcDbEntity
  8
3D-EQPM
100
AcDbFaceRecord
 10
0.0
 20
0.0
 30
0.0
 70
   128
 71
   -24
 72
    22
 73
    23
  0
VERTEX
  5
267
330
23D
100
AcDbEntity
  8
3D-EQPM
100
AcDbFaceRecord
 10
0.0
 20
0.0
 30
0.0
 70
   128
 71
    -1
 72
   -22
 73
    24
  0
VERTEX
  5
268
330
23D
100
AcDbEntity
  8
3D-EQPM
100
AcDbFaceRecord
 10
0.0
 20
0.0
 30
0.0
 70
   128
 71
   -22
 72
    20
 73
    21
  0
VERTEX
  5
269
330
23D
100
AcDbEntity
  8
3D-EQPM
100
AcDbFaceRecord
 10
0.0
 20
0.0
 30
0.0
 70
   128
 71
   -20
 72
   -22
 73
    -1
  0
VERTEX
  5
26A
330
23D
100
AcDbEntity
  8
3D-EQPM
100
AcDbFaceRecord
 10
0.0
 20
0.0
 30
0.0
 70
   128
 71
    18
 72
    19
 73
   -20
  0
VERTEX
  5
26B
330
23D
100
AcDbEntity
  8
3D-EQPM
100
AcDbFaceRecord
 10
0.0
 20
0.0
 30
0.0
 70
   128
 71
    -1
 72
   -13
 73
   -18
  0
SEQEND
  5
26C
330
23D
100
AcDbEntity
  8
3D-EQPM
  0
POLYLINE
  5
26D
330
A9
100
AcDbEntity
  8
3D-EQPM
100
AcDbPolyFaceMesh
 66
     1
 10
0.0
 20
0.0
 30
0.0
 70
    64
 71
    26
 72
    19
1001
REVIT
1002
{
1070
     4
1000
14409
1002
}
  0
VERTEX
  5
26E
330
26D
100
AcDbEntity
  8
3D-EQPM
100
AcDbVertex
100
AcDbPolyFaceMeshVertex
 10
0.59765625
 20
0.1101397387683391
 30
0.0360783906653524
 70
   192
  0
VERTEX
  5
26F
330
26D
100
AcDbEntity
  8
3D-EQPM
100
AcDbVertex
100
AcDbPolyFaceMeshVertex
 10
0.6017003059387207
 20
0.1106460951268673
 30
0.0359138678759337
 70
   192
  0
VERTEX
  5
270
330
26D
100
AcDbEntity
  8
3D-EQPM
100
AcDbVertex
100
AcDbPolyFaceMeshVertex
 10
0.6054687649011611
 20
0.1121306419372558
 30
0.0354315089061856
 70
   192
  0
VERTEX
  5
271
330
26D
100
AcDbEntity
  8
3D-EQPM
100
AcDbVertex
100
AcDbPolyFaceMeshVertex
 10
0.6087048053741455
 20
0.1144922152161598
 30
0.0346641875803471
 70
   192
  0
VERTEX
  5
272
330
26D
100
AcDbEntity
  8
3D-EQPM
100
AcDbVertex
100
AcDbPolyFaceMeshVertex
 10
0.6111879050731658
 20
0.1175698712468147
 30
0.0336641957983375
 70
   192
  0
VERTEX
  5
273
330
26D
100
AcDbEntity
  8
3D-EQPM
100
AcDbVertex
100
AcDbPolyFaceMeshVertex
 10
0.6127488613128662
 20
0.1211538836359977
 30
0.0324996784329414
 70
   192
  0
VERTEX
  5
274
330
26D
100
AcDbEntity
  8
3D-EQPM
100
AcDbVertex
100
AcDbPolyFaceMeshVertex
 10
0.6132812350988388
 20
0.1250000037252903
 30
0.0312500009313226
 70
   192
  0
VERTEX
  5
275
330
26D
100
AcDbEntity
  8
3D-EQPM
100
AcDbVertex
100
AcDbPolyFaceMeshVertex
 10
0.6127488613128662
 20
0.1288461126387119
 30
0.030000320635736
 70
   192
  0
VERTEX
  5
276
330
26D
100
AcDbEntity
  8
3D-EQPM
100
AcDbVertex
100
AcDbPolyFaceMeshVertex
 10
0.6111879050731658
 20
0.1324301250278949
 30
0.0288358060643077
 70
   192
  0
VERTEX
  5
277
330
26D
100
AcDbEntity
  8
3D-EQPM
100
AcDbVertex
100
AcDbPolyFaceMeshVertex
 10
0.6087048053741455
 20
0.1355077922344207
 30
0.0278358114883304
 70
   192
  0
VERTEX
  5
278
330
26D
100
AcDbEntity
  8
3D-EQPM
100
AcDbVertex
100
AcDbPolyFaceMeshVertex
 10
0.6054687649011611
 20
0.1378693655133247
 30
0.0270684901624918
 70
   192
  0
VERTEX
  5
279
330
26D
100
AcDbEntity
  8
3D-EQPM
100
AcDbVertex
100
AcDbPolyFaceMeshVertex
 10
0.6017003059387207
 20
0.1393539123237133
 30
0.0265861339867115
 70
   192
  0
VERTEX
  5
27A
330
26D
100
AcDbEntity
  8
3D-EQPM
100
AcDbVertex
100
AcDbPolyFaceMeshVertex
 10
0.59765625
 20
0.1398602575063705
 30
0.0264216084033251
 70
   192
  0
VERTEX
  5
27B
330
26D
100
AcDbEntity
  8
3D-EQPM
100
AcDbVertex
100
AcDbPolyFaceMeshVertex
 10
0.59765625
 20
1.354341477155685
 30
3.7642103433609
 70
   192
  0
VERTEX
  5
27C
330
26D
100
AcDbEntity
  8
3D-EQPM
100
AcDbVertex
100
AcDbPolyFaceMeshVertex
 10
0.6017003059387207
 20
1.353835076093673
 30
3.76437485218048
 70
   192
  0
VERTEX
  5
27D
330
26D
100
AcDbEntity
  8
3D-EQPM
100
AcDbVertex
100
AcDbPolyFaceMeshVertex
 10
0.6054687649011611
 20
1.352350562810897
 30
3.764857292175292
 70
   192
  0
VERTEX
  5
27E
330
26D
100
AcDbEntity
  8
3D-EQPM
100
AcDbVertex
100
AcDbPolyFaceMeshVertex
 10
0.6087048053741455
 20
1.349988967180251
 30
3.765624403953551
 70
   192
  0
VERTEX
  5
27F
330
26D
100
AcDbEntity
  8
3D-EQPM
100
AcDbVertex
100
AcDbPolyFaceMeshVertex
 10
0.6111879050731658
 20
1.346911311149596
 30
3.766624689102172
 70
   192
  0
VERTEX
  5
280
330
26D
100
AcDbEntity
  8
3D-EQPM
100
AcDbVertex
100
AcDbPolyFaceMeshVertex
 10
0.6127488613128662
 20
1.343327343463897
 30
3.767789125442504
 70
   192
  0
VERTEX
  5
281
330
26D
100
AcDbEntity
  8
3D-EQPM
100
AcDbVertex
100
AcDbPolyFaceMeshVertex
 10
0.6132812350988388
 20
1.339481145143508
 30
3.769038677215575
 70
   192
  0
VERTEX
  5
282
330
26D
100
AcDbEntity
  8
3D-EQPM
100
AcDbVertex
100
AcDbPolyFaceMeshVertex
 10
0.6127488613128662
 20
1.335635036230087
 30
3.770288586616515
 70
   192
  0
VERTEX
  5
283
330
26D
100
AcDbEntity
  8
3D-EQPM
100
AcDbVertex
100
AcDbPolyFaceMeshVertex
 10
0.6111879050731658
 20
1.332051068544387
 30
3.771453022956847
 70
   192
  0
VERTEX
  5
284
330
26D
100
AcDbEntity
  8
3D-EQPM
100
AcDbVertex
100
AcDbPolyFaceMeshVertex
 10
0.6087048053741455
 20
1.328973412513732
 30
3.772452950477599
 70
   192
  0
VERTEX
  5
285
330
26D
100
AcDbEntity
  8
3D-EQPM
100
AcDbVertex
100
AcDbPolyFaceMeshVertex
 10
0.6054687649011611
 20
1.326611816883086
 30
3.773220419883727
 70
   192
  0
VERTEX
  5
286
330
26D
100
AcDbEntity
  8
3D-EQPM
100
AcDbVertex
100
AcDbPolyFaceMeshVertex
 10
0.6017003059387207
 20
1.325127303600311
 30
3.77370250225067
 70
   192
  0
VERTEX
  5
287
330
26D
100
AcDbEntity
  8
3D-EQPM
100
AcDbVertex
100
AcDbPolyFaceMeshVertex
 10
0.59765625
 20
1.324620902538299
 30
3.773867011070251
 70
   192
  0
VERTEX
  5
288
330
26D
100
AcDbEntity
  8
3D-EQPM
100
AcDbFaceRecord
 10
0.0
 20
0.0
 30
0.0
 70
   128
 71
    15
 72
   -16
 73
   -12
  0
VERTEX
  5
289
330
26D
100
AcDbEntity
  8
3D-EQPM
100
AcDbFaceRecord
 10
0.0
 20
0.0
 30
0.0
 70
   128
 71
    14
 72
   -15
 73
    13
  0
VERTEX
  5
28A
330
26D
100
AcDbEntity
  8
3D-EQPM
100
AcDbFaceRecord
 10
0.0
 20
0.0
 30
0.0
 70
   128
 71
    18
 72
   -19
 73
    -8
  0
VERTEX
  5
28B
330
26D
100
AcDbEntity
  8
3D-EQPM
100
AcDbFaceRecord
 10
0.0
 20
0.0
 30
0.0
 70
   128
 71
    17
 72
   -18
 73
    -9
  0
VERTEX
  5
28C
330
26D
100
AcDbEntity
  8
3D-EQPM
100
AcDbFaceRecord
 10
0.0
 20
0.0
 30
0.0
 70
   128
 71
    16
 72
   -17
 73
   -11
  0
VERTEX
  5
28D
330
26D
100
AcDbEntity
  8
3D-EQPM
100
AcDbFaceRecord
 10
0.0
 20
0.0
 30
0.0
 70
   128
 71
    12
 72
   -13
 73
   -15
  0
VERTEX
  5
28E
330
26D
100
AcDbEntity
  8
3D-EQPM
100
AcDbFaceRecord
 10
0.0
 20
0.0
 30
0.0
 70
   128
 71
   -12
 72
   -16
 73
    11
  0
VERTEX
  5
28F
330
26D
100
AcDbEntity
  8
3D-EQPM
100
AcDbFaceRecord
 10
0.0
 20
0.0
 30
0.0
 70
   128
 71
   -17
 72
    10
 73
   -11
  0
VERTEX
  5
290
330
26D
100
AcDbEntity
  8
3D-EQPM
100
AcDbFaceRecord
 10
0.0
 20
0.0
 30
0.0
 70
   128
 71
   -17
 72
     9
 73
   -10
  0
VERTEX
  5
291
330
26D
100
AcDbEntity
  8
3D-EQPM
100
AcDbFaceRecord
 10
0.0
 20
0.0
 30
0.0
 70
   128
 71
     8
 72
    -9
 73
   -18
  0
VERTEX
  5
292
330
26D
100
AcDbEntity
  8
3D-EQPM
100
AcDbFaceRecord
 10
0.0
 20
0.0
 30
0.0
 70
   128
 71
   -19
 72
     7
 73
    -8
  0
VERTEX
  5
293
330
26D
100
AcDbEntity
  8
3D-EQPM
100
AcDbFaceRecord
 10
0.0
 20
0.0
 30
0.0
 70
   128
 71
    19
 72
   -20
 73
    -7
  0
VERTEX
  5
294
330
26D
100
AcDbEntity
  8
3D-EQPM
100
AcDbFaceRecord
 10
0.0
 20
0.0
 30
0.0
 70
   128
 71
    22
 72
   -23
 73
     4
 74
    -5
  0
VERTEX
  5
295
330
26D
100
AcDbEntity
  8
3D-EQPM
100
AcDbFaceRecord
 10
0.0
 20
0.0
 30
0.0
 70
   128
 71
    21
 72
   -22
 73
     5
 74
    -6
  0
VERTEX
  5
296
330
26D
100
AcDbEntity
  8
3D-EQPM
100
AcDbFaceRecord
 10
0.0
 20
0.0
 30
0.0
 70
   128
 71
    25
 72
    26
 73
     1
 74
    -2
  0
VERTEX
  5
297
330
26D
100
AcDbEntity
  8
3D-EQPM
100
AcDbFaceRecord
 10
0.0
 20
0.0
 30
0.0
 70
   128
 71
    24
 72
   -25
 73
    -2
  0
VERTEX
  5
298
330
26D
100
AcDbEntity
  8
3D-EQPM
100
AcDbFaceRecord
 10
0.0
 20
0.0
 30
0.0
 70
   128
 71
    23
 72
   -24
 73
     3
 74
    -4
  0
VERTEX
  5
299
330
26D
100
AcDbEntity
  8
3D-EQPM
100
AcDbFaceRecord
 10
0.0
 20
0.0
 30
0.0
 70
   128
 71
    20
 72
   -21
 73
     6
 74
    -7
  0
VERTEX
  5
29A
330
26D
100
AcDbEntity
  8
3D-EQPM
100
AcDbFaceRecord
 10
0.0
 20
0.0
 30
0.0
 70
   128
 71
     2
 72
    -3
 73
   -24
  0
SEQEND
  5
29B
330
26D
100
AcDbEntity
  8
3D-EQPM
  0
POLYLINE
  5
29C
330
A9
100
AcDbEntity
  8
3D-EQPM
100
AcDbPolyFaceMesh
 66
     1
 10
0.0
 20
0.0
 30
0.0
 70
    64
 71
    26
 72
    22
1001
REVIT
1002
{
1070
     4
1000
14409
1002
}
  0
VERTEX
  5
29D
330
29C
100
AcDbEntity
  8
3D-EQPM
100
AcDbVertex
100
AcDbPolyFaceMeshVertex
 10
0.59765625
 20
0.1398602575063705
 30
0.0264216084033251
 70
   192
  0
VERTEX
  5
29E
330
29C
100
AcDbEntity
  8
3D-EQPM
100
AcDbVertex
100
AcDbPolyFaceMeshVertex
 10
0.5936121940612792
 20
0.1393539123237133
 30
0.0265861339867115
 70
   192
  0
VERTEX
  5
29F
330
29C
100
AcDbEntity
  8
3D-EQPM
100
AcDbVertex
100
AcDbPolyFaceMeshVertex
 10
0.5898437350988388
 20
0.1378693655133247
 30
0.0270684901624918
 70
   192
  0
VERTEX
  5
2A0
330
29C
100
AcDbEntity
  8
3D-EQPM
100
AcDbVertex
100
AcDbPolyFaceMeshVertex
 10
0.5866076946258544
 20
0.1355077922344207
 30
0.0278358114883304
 70
   192
  0
VERTEX
  5
2A1
330
29C
100
AcDbEntity
  8
3D-EQPM
100
AcDbVertex
100
AcDbPolyFaceMeshVertex
 10
0.5841245949268341
 20
0.1324301250278949
 30
0.0288358060643077
 70
   192
  0
VERTEX
  5
2A2
330
29C
100
AcDbEntity
  8
3D-EQPM
100
AcDbVertex
100
AcDbPolyFaceMeshVertex
 10
0.5825636386871337
 20
0.1288461126387119
 30
0.030000320635736
 70
   192
  0
VERTEX
  5
2A3
330
29C
100
AcDbEntity
  8
3D-EQPM
100
AcDbVertex
100
AcDbPolyFaceMeshVertex
 10
0.5820312649011611
 20
0.1250000037252903
 30
0.0312500009313226
 70
   192
  0
VERTEX
  5
2A4
330
29C
100
AcDbEntity
  8
3D-EQPM
100
AcDbVertex
100
AcDbPolyFaceMeshVertex
 10
0.5825636386871337
 20
0.1211538836359977
 30
0.0324996784329414
 70
   192
  0
VERTEX
  5
2A5
330
29C
100
AcDbEntity
  8
3D-EQPM
100
AcDbVertex
100
AcDbPolyFaceMeshVertex
 10
0.5841245949268341
 20
0.1175698712468147
 30
0.0336641957983375
 70
   192
  0
VERTEX
  5
2A6
330
29C
100
AcDbEntity
  8
3D-EQPM
100
AcDbVertex
100
AcDbPolyFaceMeshVertex
 10
0.5866076946258544
 20
0.1144922152161598
 30
0.0346641875803471
 70
   192
  0
VERTEX
  5
2A7
330
29C
100
AcDbEntity
  8
3D-EQPM
100
AcDbVertex
100
AcDbPolyFaceMeshVertex
 10
0.5898437350988388
 20
0.1121306419372558
 30
0.0354315089061856
 70
   192
  0
VERTEX
  5
2A8
330
29C
100
AcDbEntity
  8
3D-EQPM
100
AcDbVertex
100
AcDbPolyFaceMeshVertex
 10
0.5936121940612792
 20
0.1106460951268673
 30
0.0359138678759337
 70
   192
  0
VERTEX
  5
2A9
330
29C
100
AcDbEntity
  8
3D-EQPM
100
AcDbVertex
100
AcDbPolyFaceMeshVertex
 10
0.59765625
 20
0.1101397387683391
 30
0.0360783906653524
 70
   192
  0
VERTEX
  5
2AA
330
29C
100
AcDbEntity
  8
3D-EQPM
100
AcDbVertex
100
AcDbPolyFaceMeshVertex
 10
0.59765625
 20
1.324620902538299
 30
3.773867011070251
 70
   192
  0
VERTEX
  5
2AB
330
29C
100
AcDbEntity
  8
3D-EQPM
100
AcDbVertex
100
AcDbPolyFaceMeshVertex
 10
0.5936121940612792
 20
1.325127303600311
 30
3.77370250225067
 70
   192
  0
VERTEX
  5
2AC
330
29C
100
AcDbEntity
  8
3D-EQPM
100
AcDbVertex
100
AcDbPolyFaceMeshVertex
 10
0.5898437350988388
 20
1.326611816883086
 30
3.773220419883727
 70
   192
  0
VERTEX
  5
2AD
330
29C
100
AcDbEntity
  8
3D-EQPM
100
AcDbVertex
100
AcDbPolyFaceMeshVertex
 10
0.5866076946258544
 20
1.328973412513732
 30
3.772452950477599
 70
   192
  0
VERTEX
  5
2AE
330
29C
100
AcDbEntity
  8
3D-EQPM
100
AcDbVertex
100
AcDbPolyFaceMeshVertex
 10
0.5841245949268341
 20
1.332051068544387
 30
3.771453022956847
 70
   192
  0
VERTEX
  5
2AF
330
29C
100
AcDbEntity
  8
3D-EQPM
100
AcDbVertex
100
AcDbPolyFaceMeshVertex
 10
0.5825636386871337
 20
1.335635036230087
 30
3.770288586616515
 70
   192
  0
VERTEX
  5
2B0
330
29C
100
AcDbEntity
  8
3D-EQPM
100
AcDbVertex
100
AcDbPolyFaceMeshVertex
 10
0.5820312649011611
 20
1.339481145143508
 30
3.769038677215575
 70
   192
  0
VERTEX
  5
2B1
330
29C
100
AcDbEntity
  8
3D-EQPM
100
AcDbVertex
100
AcDbPolyFaceMeshVertex
 10
0.5825636386871337
 20
1.343327343463897
 30
3.767789125442504
 70
   192
  0
VERTEX
  5
2B2
330
29C
100
AcDbEntity
  8
3D-EQPM
100
AcDbVertex
100
AcDbPolyFaceMeshVertex
 10
0.5841245949268341
 20
1.346911311149596
 30
3.766624689102172
 70
   192
  0
VERTEX
  5
2B3
330
29C
100
AcDbEntity
  8
3D-EQPM
100
AcDbVertex
100
AcDbPolyFaceMeshVertex
 10
0.5866076946258544
 20
1.349988967180251
 30
3.765624403953551
 70
   192
  0
VERTEX
  5
2B4
330
29C
100
AcDbEntity
  8
3D-EQPM
100
AcDbVertex
100
AcDbPolyFaceMeshVertex
 10
0.5898437350988388
 20
1.352350562810897
 30
3.764857292175292
 70
   192
  0
VERTEX
  5
2B5
330
29C
100
AcDbEntity
  8
3D-EQPM
100
AcDbVertex
100
AcDbPolyFaceMeshVertex
 10
0.5936121940612792
 20
1.353835076093673
 30
3.76437485218048
 70
   192
  0
VERTEX
  5
2B6
330
29C
100
AcDbEntity
  8
3D-EQPM
100
AcDbVertex
100
AcDbPolyFaceMeshVertex
 10
0.59765625
 20
1.354341477155685
 30
3.7642103433609
 70
   192
  0
VERTEX
  5
2B7
330
29C
100
AcDbEntity
  8
3D-EQPM
100
AcDbFaceRecord
 10
0.0
 20
0.0
 30
0.0
 70
   128
 71
   -12
 72
    15
 73
   -16
 74
    11
  0
VERTEX
  5
2B8
330
29C
100
AcDbEntity
  8
3D-EQPM
100
AcDbFaceRecord
 10
0.0
 20
0.0
 30
0.0
 70
   128
 71
    14
 72
   -15
 73
    13
  0
VERTEX
  5
2B9
330
29C
100
AcDbEntity
  8
3D-EQPM
100
AcDbFaceRecord
 10
0.0
 20
0.0
 30
0.0
 70
   128
 71
    18
 72
   -19
 73
    -9
  0
VERTEX
  5
2BA
330
29C
100
AcDbEntity
  8
3D-EQPM
100
AcDbFaceRecord
 10
0.0
 20
0.0
 30
0.0
 70
   128
 71
    17
 72
   -18
 73
    -9
  0
VERTEX
  5
2BB
330
29C
100
AcDbEntity
  8
3D-EQPM
100
AcDbFaceRecord
 10
0.0
 20
0.0
 30
0.0
 70
   128
 71
    16
 72
   -17
 73
   -10
  0
VERTEX
  5
2BC
330
29C
100
AcDbEntity
  8
3D-EQPM
100
AcDbFaceRecord
 10
0.0
 20
0.0
 30
0.0
 70
   128
 71
    12
 72
   -13
 73
   -15
  0
VERTEX
  5
2BD
330
29C
100
AcDbEntity
  8
3D-EQPM
100
AcDbFaceRecord
 10
0.0
 20
0.0
 30
0.0
 70
   128
 71
    -9
 72
   -19
 73
     8
  0
VERTEX
  5
2BE
330
29C
100
AcDbEntity
  8
3D-EQPM
100
AcDbFaceRecord
 10
0.0
 20
0.0
 30
0.0
 70
   128
 71
    -8
 72
   -20
 73
     7
  0
VERTEX
  5
2BF
330
29C
100
AcDbEntity
  8
3D-EQPM
100
AcDbFaceRecord
 10
0.0
 20
0.0
 30
0.0
 70
   128
 71
    10
 72
   -11
 73
   -16
  0
VERTEX
  5
2C0
330
29C
100
AcDbEntity
  8
3D-EQPM
100
AcDbFaceRecord
 10
0.0
 20
0.0
 30
0.0
 70
   128
 71
   -10
 72
   -17
 73
     9
  0
VERTEX
  5
2C1
330
29C
100
AcDbEntity
  8
3D-EQPM
100
AcDbFaceRecord
 10
0.0
 20
0.0
 30
0.0
 70
   128
 71
    -8
 72
    19
 73
   -20
  0
VERTEX
  5
2C2
330
29C
100
AcDbEntity
  8
3D-EQPM
100
AcDbFaceRecord
 10
0.0
 20
0.0
 30
0.0
 70
   128
 71
    22
 72
   -23
 73
    -4
  0
VERTEX
  5
2C3
330
29C
100
AcDbEntity
  8
3D-EQPM
100
AcDbFaceRecord
 10
0.0
 20
0.0
 30
0.0
 70
   128
 71
    21
 72
   -22
 73
    -5
  0
VERTEX
  5
2C4
330
29C
100
AcDbEntity
  8
3D-EQPM
100
AcDbFaceRecord
 10
0.0
 20
0.0
 30
0.0
 70
   128
 71
    25
 72
    26
 73
     1
 74
    -2
  0
VERTEX
  5
2C5
330
29C
100
AcDbEntity
  8
3D-EQPM
100
AcDbFaceRecord
 10
0.0
 20
0.0
 30
0.0
 70
   128
 71
    24
 72
   -25
 73
    -2
  0
VERTEX
  5
2C6
330
29C
100
AcDbEntity
  8
3D-EQPM
100
AcDbFaceRecord
 10
0.0
 20
0.0
 30
0.0
 70
   128
 71
    23
 72
   -24
 73
    -3
  0
VERTEX
  5
2C7
330
29C
100
AcDbEntity
  8
3D-EQPM
100
AcDbFaceRecord
 10
0.0
 20
0.0
 30
0.0
 70
   128
 71
     6
 72
    -7
 73
   -21
  0
VERTEX
  5
2C8
330
29C
100
AcDbEntity
  8
3D-EQPM
100
AcDbFaceRecord
 10
0.0
 20
0.0
 30
0.0
 70
   128
 71
   -21
 72
     5
 73
    -6
  0
VERTEX
  5
2C9
330
29C
100
AcDbEntity
  8
3D-EQPM
100
AcDbFaceRecord
 10
0.0
 20
0.0
 30
0.0
 70
   128
 71
   -21
 72
    -7
 73
    20
  0
VERTEX
  5
2CA
330
29C
100
AcDbEntity
  8
3D-EQPM
100
AcDbFaceRecord
 10
0.0
 20
0.0
 30
0.0
 70
   128
 71
   -22
 72
     4
 73
    -5
  0
VERTEX
  5
2CB
330
29C
100
AcDbEntity
  8
3D-EQPM
100
AcDbFaceRecord
 10
0.0
 20
0.0
 30
0.0
 70
   128
 71
   -23
 72
     3
 73
    -4
  0
VERTEX
  5
2CC
330
29C
100
AcDbEntity
  8
3D-EQPM
100
AcDbFaceRecord
 10
0.0
 20
0.0
 30
0.0
 70
   128
 71
     2
 72
    -3
 73
   -24
  0
SEQEND
  5
2CD
330
29C
100
AcDbEntity
  8
3D-EQPM
  0
POLYLINE
  5
2CE
330
A9
100
AcDbEntity
  8
3D-EQPM
100
AcDbPolyFaceMesh
 66
     1
 10
0.0
 20
0.0
 30
0.0
 70
    64
 71
    24
 72
    22
1001
REVIT
1002
{
1070
     4
1000
14409
1002
}
  0
VERTEX
  5
2CF
330
2CE
100
AcDbEntity
  8
3D-EQPM
100
AcDbVertex
100
AcDbPolyFaceMeshVertex
 10
0.3943934440612792
 20
0.1372101679444313
 30
0.0223787971772254
 70
   192
  0
VERTEX
  5
2D0
330
2CE
100
AcDbEntity
  8
3D-EQPM
100
AcDbVertex
100
AcDbPolyFaceMeshVertex
 10
0.3906249850988388
 20
0.1359473280608654
 30
0.0232962970621884
 70
   192
  0
VERTEX
  5
2D1
330
2CE
100
AcDbEntity
  8
3D-EQPM
100
AcDbVertex
100
AcDbPolyFaceMeshVertex
 10
0.3873889446258544
 20
0.1339384540915489
 30
0.0247558280825615
 70
   192
  0
VERTEX
  5
2D2
330
2CE
100
AcDbEntity
  8
3D-EQPM
100
AcDbVertex
100
AcDbPolyFaceMeshVertex
 10
0.3849058449268341
 20
0.1313204504549503
 30
0.0266579277813435
 70
   192
  0
VERTEX
  5
2D3
330
2CE
100
AcDbEntity
  8
3D-EQPM
100
AcDbVertex
100
AcDbPolyFaceMeshVertex
 10
0.3833448886871337
 20
0.1282717064023018
 30
0.0288729686290026
 70
   192
  0
VERTEX
  5
2D4
330
2CE
100
AcDbEntity
  8
3D-EQPM
100
AcDbVertex
100
AcDbPolyFaceMeshVertex
 10
0.3828125149011611
 20
0.1250000037252903
 30
0.0312500009313226
 70
   192
  0
VERTEX
  5
2D5
330
2CE
100
AcDbEntity
  8
3D-EQPM
100
AcDbVertex
100
AcDbPolyFaceMeshVertex
 10
0.3833448886871337
 20
0.1217283010482788
 30
0.0336270304396749
 70
   192
  0
VERTEX
  5
2D6
330
2CE
100
AcDbEntity
  8
3D-EQPM
100
AcDbVertex
100
AcDbPolyFaceMeshVertex
 10
0.3849058449268341
 20
0.1186795569956302
 30
0.035842071287334
 70
   192
  0
VERTEX
  5
2D7
330
2CE
100
AcDbEntity
  8
3D-EQPM
100
AcDbVertex
100
AcDbPolyFaceMeshVertex
 10
0.3873889446258544
 20
0.1160615421831608
 30
0.0377441709861159
 70
   192
  0
VERTEX
  5
2D8
330
2CE
100
AcDbEntity
  8
3D-EQPM
100
AcDbVertex
100
AcDbPolyFaceMeshVertex
 10
0.3906249850988388
 20
0.1140526682138443
 30
0.0392037034034729
 70
   192
  0
VERTEX
  5
2D9
330
2CE
100
AcDbEntity
  8
3D-EQPM
100
AcDbVertex
100
AcDbPolyFaceMeshVertex
 10
0.3943934440612792
 20
0.1127898395061493
 30
0.0401212032884359
 70
   192
  0
VERTEX
  5
2DA
330
2CE
100
AcDbEntity
  8
3D-EQPM
100
AcDbVertex
100
AcDbPolyFaceMeshVertex
 10
0.3984375
 20
0.1123591102659702
 30
0.0404341444373131
 70
   192
  0
VERTEX
  5
2DB
330
2CE
100
AcDbEntity
  8
3D-EQPM
100
AcDbVertex
100
AcDbPolyFaceMeshVertex
 10
0.4024815559387207
 20
0.1127898395061493
 30
0.0401212032884359
 70
   192
  0
VERTEX
  5
2DC
330
2CE
100
AcDbEntity
  8
3D-EQPM
100
AcDbVertex
100
AcDbPolyFaceMeshVertex
 10
0.4062500149011611
 20
0.1140526682138443
 30
0.0392037034034729
 70
   192
  0
VERTEX
  5
2DD
330
2CE
100
AcDbEntity
  8
3D-EQPM
100
AcDbVertex
100
AcDbPolyFaceMeshVertex
 10
0.4094860553741455
 20
0.1160615421831608
 30
0.0377441709861159
 70
   192
  0
VERTEX
  5
2DE
330
2CE
100
AcDbEntity
  8
3D-EQPM
100
AcDbVertex
100
AcDbPolyFaceMeshVertex
 10
0.4119691550731658
 20
0.1186795569956302
 30
0.035842071287334
 70
   192
  0
VERTEX
  5
2DF
330
2CE
100
AcDbEntity
  8
3D-EQPM
100
AcDbVertex
100
AcDbPolyFaceMeshVertex
 10
0.4135301113128662
 20
0.1217283010482788
 30
0.0336270304396749
 70
   192
  0
VERTEX
  5
2E0
330
2CE
100
AcDbEntity
  8
3D-EQPM
100
AcDbVertex
100
AcDbPolyFaceMeshVertex
 10
0.4140624850988388
 20
0.1250000037252903
 30
0.0312500009313226
 70
   192
  0
VERTEX
  5
2E1
330
2CE
100
AcDbEntity
  8
3D-EQPM
100
AcDbVertex
100
AcDbPolyFaceMeshVertex
 10
0.4135301113128662
 20
0.1282717064023018
 30
0.0288729686290026
 70
   192
  0
VERTEX
  5
2E2
330
2CE
100
AcDbEntity
  8
3D-EQPM
100
AcDbVertex
100
AcDbPolyFaceMeshVertex
 10
0.4119691550731658
 20
0.1313204504549503
 30
0.0266579277813435
 70
   192
  0
VERTEX
  5
2E3
330
2CE
100
AcDbEntity
  8
3D-EQPM
100
AcDbVertex
100
AcDbPolyFaceMeshVertex
 10
0.4094860553741455
 20
0.1339384540915489
 30
0.0247558280825615
 70
   192
  0
VERTEX
  5
2E4
330
2CE
100
AcDbEntity
  8
3D-EQPM
100
AcDbVertex
100
AcDbPolyFaceMeshVertex
 10
0.4062500149011611
 20
0.1359473280608654
 30
0.0232962970621884
 70
   192
  0
VERTEX
  5
2E5
330
2CE
100
AcDbEntity
  8
3D-EQPM
100
AcDbVertex
100
AcDbPolyFaceMeshVertex
 10
0.4024815559387207
 20
0.1372101679444313
 30
0.0223787971772254
 70
   192
  0
VERTEX
  5
2E6
330
2CE
100
AcDbEntity
  8
3D-EQPM
100
AcDbVertex
100
AcDbPolyFaceMeshVertex
 10
0.3984375
 20
0.1376408860087394
 30
0.0220658560283482
 70
   192
  0
VERTEX
  5
2E7
330
2CE
100
AcDbEntity
  8
3D-EQPM
100
AcDbFaceRecord
 10
0.0
 20
0.0
 30
0.0
 70
   128
 71
     7
 72
     6
 73
    -5
  0
VERTEX
  5
2E8
330
2CE
100
AcDbEntity
  8
3D-EQPM
100
AcDbFaceRecord
 10
0.0
 20
0.0
 30
0.0
 70
   128
 71
    -7
 72
    -5
 73
     8
  0
VERTEX
  5
2E9
330
2CE
100
AcDbEntity
  8
3D-EQPM
100
AcDbFaceRecord
 10
0.0
 20
0.0
 30
0.0
 70
   128
 71
   -10
 72
    -8
 73
    -4
  0
VERTEX
  5
2EA
330
2CE
100
AcDbEntity
  8
3D-EQPM
100
AcDbFaceRecord
 10
0.0
 20
0.0
 30
0.0
 70
   128
 71
     9
 72
    -8
 73
    10
  0
VERTEX
  5
2EB
330
2CE
100
AcDbEntity
  8
3D-EQPM
100
AcDbFaceRecord
 10
0.0
 20
0.0
 30
0.0
 70
   128
 71
   -17
 72
   -10
 73
    -4
  0
VERTEX
  5
2EC
330
2CE
100
AcDbEntity
  8
3D-EQPM
100
AcDbFaceRecord
 10
0.0
 20
0.0
 30
0.0
 70
   128
 71
     3
 72
    -2
 73
     4
  0
VERTEX
  5
2ED
330
2CE
100
AcDbEntity
  8
3D-EQPM
100
AcDbFaceRecord
 10
0.0
 20
0.0
 30
0.0
 70
   128
 71
    -8
 72
     5
 73
    -4
  0
VERTEX
  5
2EE
330
2CE
100
AcDbEntity
  8
3D-EQPM
100
AcDbFaceRecord
 10
0.0
 20
0.0
 30
0.0
 70
   128
 71
     2
 72
    -1
 73
    -4
  0
VERTEX
  5
2EF
330
2CE
100
AcDbEntity
  8
3D-EQPM
100
AcDbFaceRecord
 10
0.0
 20
0.0
 30
0.0
 70
   128
 71
   -21
 72
    -4
 73
    -1
  0
VERTEX
  5
2F0
330
2CE
100
AcDbEntity
  8
3D-EQPM
100
AcDbFaceRecord
 10
0.0
 20
0.0
 30
0.0
 70
   128
 71
     1
 72
   -24
 73
   -21
  0
VERTEX
  5
2F1
330
2CE
100
AcDbEntity
  8
3D-EQPM
100
AcDbFaceRecord
 10
0.0
 20
0.0
 30
0.0
 70
   128
 71
    12
 72
    11
 73
   -10
  0
VERTEX
  5
2F2
330
2CE
100
AcDbEntity
  8
3D-EQPM
100
AcDbFaceRecord
 10
0.0
 20
0.0
 30
0.0
 70
   128
 71
   -17
 72
   -13
 73
   -10
  0
VERTEX
  5
2F3
330
2CE
100
AcDbEntity
  8
3D-EQPM
100
AcDbFaceRecord
 10
0.0
 20
0.0
 30
0.0
 70
   128
 71
    14
 72
   -13
 73
   -17
  0
VERTEX
  5
2F4
330
2CE
100
AcDbEntity
  8
3D-EQPM
100
AcDbFaceRecord
 10
0.0
 20
0.0
 30
0.0
 70
   128
 71
    17
 72
    16
 73
   -15
  0
VERTEX
  5
2F5
330
2CE
100
AcDbEntity
  8
3D-EQPM
100
AcDbFaceRecord
 10
0.0
 20
0.0
 30
0.0
 70
   128
 71
   -14
 72
   -17
 73
    15
  0
VERTEX
  5
2F6
330
2CE
100
AcDbEntity
  8
3D-EQPM
100
AcDbFaceRecord
 10
0.0
 20
0.0
 30
0.0
 70
   128
 71
    -4
 72
   -19
 73
   -17
  0
VERTEX
  5
2F7
330
2CE
100
AcDbEntity
  8
3D-EQPM
100
AcDbFaceRecord
 10
0.0
 20
0.0
 30
0.0
 70
   128
 71
    22
 72
   -21
 73
    23
  0
VERTEX
  5
2F8
330
2CE
100
AcDbEntity
  8
3D-EQPM
100
AcDbFaceRecord
 10
0.0
 20
0.0
 30
0.0
 70
   128
 71
   -23
 72
   -21
 73
    24
  0
VERTEX
  5
2F9
330
2CE
100
AcDbEntity
  8
3D-EQPM
100
AcDbFaceRecord
 10
0.0
 20
0.0
 30
0.0
 70
   128
 71
    20
 72
   -19
 73
    21
  0
VERTEX
  5
2FA
330
2CE
100
AcDbEntity
  8
3D-EQPM
100
AcDbFaceRecord
 10
0.0
 20
0.0
 30
0.0
 70
   128
 71
    -4
 72
   -21
 73
   -19
  0
VERTEX
  5
2FB
330
2CE
100
AcDbEntity
  8
3D-EQPM
100
AcDbFaceRecord
 10
0.0
 20
0.0
 30
0.0
 70
   128
 71
    19
 72
    18
 73
   -17
  0
VERTEX
  5
2FC
330
2CE
100
AcDbEntity
  8
3D-EQPM
100
AcDbFaceRecord
 10
0.0
 20
0.0
 30
0.0
 70
   128
 71
   -12
 72
   -10
 73
    13
  0
SEQEND
  5
2FD
330
2CE
100
AcDbEntity
  8
3D-EQPM
  0
POLYLINE
  5
2FE
330
A9
100
AcDbEntity
  8
3D-EQPM
100
AcDbPolyFaceMesh
 66
     1
 10
0.0
 20
0.0
 30
0.0
 70
    64
 71
    24
 72
    21
1001
REVIT
1002
{
1070
     4
1000
14409
1002
}
  0
VERTEX
  5
2FF
330
2FE
100
AcDbEntity
  8
3D-EQPM
100
AcDbVertex
100
AcDbPolyFaceMeshVertex
 10
0.3984375
 20
1.696241855621337
 30
2.167296051979064
 70
   192
  0
VERTEX
  5
300
330
2FE
100
AcDbEntity
  8
3D-EQPM
100
AcDbVertex
100
AcDbPolyFaceMeshVertex
 10
0.3943934440612792
 20
1.695811092853545
 30
2.167608976364135
 70
   192
  0
VERTEX
  5
301
330
2FE
100
AcDbEntity
  8
3D-EQPM
100
AcDbVertex
100
AcDbPolyFaceMeshVertex
 10
0.3906249850988388
 20
1.694548308849334
 30
2.168526470661162
 70
   192
  0
VERTEX
  5
302
330
2FE
100
AcDbEntity
  8
3D-EQPM
100
AcDbVertex
100
AcDbPolyFaceMeshVertex
 10
0.3873889446258544
 20
1.692539513111114
 30
2.169986128807067
 70
   192
  0
VERTEX
  5
303
330
2FE
100
AcDbEntity
  8
3D-EQPM
100
AcDbVertex
100
AcDbPolyFaceMeshVertex
 10
0.3849058449268341
 20
1.689921498298644
 30
2.171888172626494
 70
   192
  0
VERTEX
  5
304
330
2FE
100
AcDbEntity
  8
3D-EQPM
100
AcDbVertex
100
AcDbPolyFaceMeshVertex
 10
0.3833448886871337
 20
1.686872720718383
 30
2.174103140830993
 70
   192
  0
VERTEX
  5
305
330
2FE
100
AcDbEntity
  8
3D-EQPM
100
AcDbVertex
100
AcDbPolyFaceMeshVertex
 10
0.3828125149011611
 20
1.683600962162017
 30
2.176480293273925
 70
   192
  0
VERTEX
  5
306
330
2FE
100
AcDbEntity
  8
3D-EQPM
100
AcDbVertex
100
AcDbPolyFaceMeshVertex
 10
0.3833448886871337
 20
1.680329382419586
 30
2.178857266902923
 70
   192
  0
VERTEX
  5
307
330
2FE
100
AcDbEntity
  8
3D-EQPM
100
AcDbVertex
100
AcDbPolyFaceMeshVertex
 10
0.3849058449268341
 20
1.677280604839324
 30
2.181072413921355
 70
   192
  0
VERTEX
  5
308
330
2FE
100
AcDbEntity
  8
3D-EQPM
100
AcDbVertex
100
AcDbPolyFaceMeshVertex
 10
0.3873889446258544
 20
1.674662590026855
 30
2.182974457740783
 70
   192
  0
VERTEX
  5
309
330
2FE
100
AcDbEntity
  8
3D-EQPM
100
AcDbVertex
100
AcDbPolyFaceMeshVertex
 10
0.3906249850988388
 20
1.6726536154747
 30
2.184433937072753
 70
   192
  0
VERTEX
  5
30A
330
2FE
100
AcDbEntity
  8
3D-EQPM
100
AcDbVertex
100
AcDbPolyFaceMeshVertex
 10
0.3943934440612792
 20
1.671390831470489
 30
2.185351431369781
 70
   192
  0
VERTEX
  5
30B
330
2FE
100
AcDbEntity
  8
3D-EQPM
100
AcDbVertex
100
AcDbPolyFaceMeshVertex
 10
0.3984375
 20
1.670960068702697
 30
2.185664355754851
 70
   192
  0
VERTEX
  5
30C
330
2FE
100
AcDbEntity
  8
3D-EQPM
100
AcDbVertex
100
AcDbPolyFaceMeshVertex
 10
0.4024815559387207
 20
1.671390831470489
 30
2.185351431369781
 70
   192
  0
VERTEX
  5
30D
330
2FE
100
AcDbEntity
  8
3D-EQPM
100
AcDbVertex
100
AcDbPolyFaceMeshVertex
 10
0.4062500149011611
 20
1.6726536154747
 30
2.184433937072753
 70
   192
  0
VERTEX
  5
30E
330
2FE
100
AcDbEntity
  8
3D-EQPM
100
AcDbVertex
100
AcDbPolyFaceMeshVertex
 10
0.4094860553741455
 20
1.674662590026855
 30
2.182974457740783
 70
   192
  0
VERTEX
  5
30F
330
2FE
100
AcDbEntity
  8
3D-EQPM
100
AcDbVertex
100
AcDbPolyFaceMeshVertex
 10
0.4119691550731658
 20
1.677280604839324
 30
2.181072413921355
 70
   192
  0
VERTEX
  5
310
330
2FE
100
AcDbEntity
  8
3D-EQPM
100
AcDbVertex
100
AcDbPolyFaceMeshVertex
 10
0.4135301113128662
 20
1.680329382419586
 30
2.178857266902923
 70
   192
  0
VERTEX
  5
311
330
2FE
100
AcDbEntity
  8
3D-EQPM
100
AcDbVertex
100
AcDbPolyFaceMeshVertex
 10
0.4140624850988388
 20
1.683600962162017
 30
2.176480293273925
 70
   192
  0
VERTEX
  5
312
330
2FE
100
AcDbEntity
  8
3D-EQPM
100
AcDbVertex
100
AcDbPolyFaceMeshVertex
 10
0.4135301113128662
 20
1.686872720718383
 30
2.174103140830993
 70
   192
  0
VERTEX
  5
313
330
2FE
100
AcDbEntity
  8
3D-EQPM
100
AcDbVertex
100
AcDbPolyFaceMeshVertex
 10
0.4119691550731658
 20
1.689921498298644
 30
2.171888172626494
 70
   192
  0
VERTEX
  5
314
330
2FE
100
AcDbEntity
  8
3D-EQPM
100
AcDbVertex
100
AcDbPolyFaceMeshVertex
 10
0.4094860553741455
 20
1.692539513111114
 30
2.169986128807067
 70
   192
  0
VERTEX
  5
315
330
2FE
100
AcDbEntity
  8
3D-EQPM
100
AcDbVertex
100
AcDbPolyFaceMeshVertex
 10
0.4062500149011611
 20
1.694548308849334
 30
2.168526470661162
 70
   192
  0
VERTEX
  5
316
330
2FE
100
AcDbEntity
  8
3D-EQPM
100
AcDbVertex
100
AcDbPolyFaceMeshVertex
 10
0.4024815559387207
 20
1.695811092853545
 30
2.167608976364135
 70
   192
  0
VERTEX
  5
317
330
2FE
100
AcDbEntity
  8
3D-EQPM
100
AcDbFaceRecord
 10
0.0
 20
0.0
 30
0.0
 70
   128
 71
     7
 72
     8
 73
    -9
  0
VERTEX
  5
318
330
2FE
100
AcDbEntity
  8
3D-EQPM
100
AcDbFaceRecord
 10
0.0
 20
0.0
 30
0.0
 70
   128
 71
     6
 72
    -7
 73
    -9
  0
VERTEX
  5
319
330
2FE
100
AcDbEntity
  8
3D-EQPM
100
AcDbFaceRecord
 10
0.0
 20
0.0
 30
0.0
 70
   128
 71
    10
 72
    11
 73
   -12
  0
VERTEX
  5
31A
330
2FE
100
AcDbEntity
  8
3D-EQPM
100
AcDbFaceRecord
 10
0.0
 20
0.0
 30
0.0
 70
   128
 71
   -10
 72
   -12
 73
     9
  0
VERTEX
  5
31B
330
2FE
100
AcDbEntity
  8
3D-EQPM
100
AcDbFaceRecord
 10
0.0
 20
0.0
 30
0.0
 70
   128
 71
    -3
 72
    -9
 73
   -12
  0
VERTEX
  5
31C
330
2FE
100
AcDbEntity
  8
3D-EQPM
100
AcDbFaceRecord
 10
0.0
 20
0.0
 30
0.0
 70
   128
 71
    -6
 72
     4
 73
     5
  0
VERTEX
  5
31D
330
2FE
100
AcDbEntity
  8
3D-EQPM
100
AcDbFaceRecord
 10
0.0
 20
0.0
 30
0.0
 70
   128
 71
    -4
 72
    -6
 73
     3
  0
VERTEX
  5
31E
330
2FE
100
AcDbEntity
  8
3D-EQPM
100
AcDbFaceRecord
 10
0.0
 20
0.0
 30
0.0
 70
   128
 71
    -9
 72
    -3
 73
    -6
  0
VERTEX
  5
31F
330
2FE
100
AcDbEntity
  8
3D-EQPM
100
AcDbFaceRecord
 10
0.0
 20
0.0
 30
0.0
 70
   128
 71
     2
 72
    -3
 73
    23
 74
   -24
  0
VERTEX
  5
320
330
2FE
100
AcDbEntity
  8
3D-EQPM
100
AcDbFaceRecord
 10
0.0
 20
0.0
 30
0.0
 70
   128
 71
    -2
 72
    24
 73
     1
  0
VERTEX
  5
321
330
2FE
100
AcDbEntity
  8
3D-EQPM
100
AcDbFaceRecord
 10
0.0
 20
0.0
 30
0.0
 70
   128
 71
   -13
 72
    -3
 73
    12
  0
VERTEX
  5
322
330
2FE
100
AcDbEntity
  8
3D-EQPM
100
AcDbFaceRecord
 10
0.0
 20
0.0
 30
0.0
 70
   128
 71
   -17
 72
    13
 73
   -14
  0
VERTEX
  5
323
330
2FE
100
AcDbEntity
  8
3D-EQPM
100
AcDbFaceRecord
 10
0.0
 20
0.0
 30
0.0
 70
   128
 71
   -16
 72
    14
 73
    15
  0
VERTEX
  5
324
330
2FE
100
AcDbEntity
  8
3D-EQPM
100
AcDbFaceRecord
 10
0.0
 20
0.0
 30
0.0
 70
   128
 71
   -13
 72
   -17
 73
   -23
  0
VERTEX
  5
325
330
2FE
100
AcDbEntity
  8
3D-EQPM
100
AcDbFaceRecord
 10
0.0
 20
0.0
 30
0.0
 70
   128
 71
   -17
 72
   -14
 73
    16
  0
VERTEX
  5
326
330
2FE
100
AcDbEntity
  8
3D-EQPM
100
AcDbFaceRecord
 10
0.0
 20
0.0
 30
0.0
 70
   128
 71
   -20
 72
    17
 73
   -18
  0
VERTEX
  5
327
330
2FE
100
AcDbEntity
  8
3D-EQPM
100
AcDbFaceRecord
 10
0.0
 20
0.0
 30
0.0
 70
   128
 71
   -23
 72
   -20
 73
    22
  0
VERTEX
  5
328
330
2FE
100
AcDbEntity
  8
3D-EQPM
100
AcDbFaceRecord
 10
0.0
 20
0.0
 30
0.0
 70
   128
 71
   -22
 72
    20
 73
    21
  0
VERTEX
  5
329
330
2FE
100
AcDbEntity
  8
3D-EQPM
100
AcDbFaceRecord
 10
0.0
 20
0.0
 30
0.0
 70
   128
 71
   -23
 72
   -17
 73
   -20
  0
VERTEX
  5
32A
330
2FE
100
AcDbEntity
  8
3D-EQPM
100
AcDbFaceRecord
 10
0.0
 20
0.0
 30
0.0
 70
   128
 71
    19
 72
   -20
 73
    18
  0
VERTEX
  5
32B
330
2FE
100
AcDbEntity
  8
3D-EQPM
100
AcDbFaceRecord
 10
0.0
 20
0.0
 30
0.0
 70
   128
 71
   -23
 72
    -3
 73
   -13
  0
SEQEND
  5
32C
330
2FE
100
AcDbEntity
  8
3D-EQPM
  0
POLYLINE
  5
32D
330
A9
100
AcDbEntity
  8
3D-EQPM
100
AcDbPolyFaceMesh
 66
     1
 10
0.0
 20
0.0
 30
0.0
 70
    64
 71
    26
 72
    22
1001
REVIT
1002
{
1070
     4
1000
14409
1002
}
  0
VERTEX
  5
32E
330
32D
100
AcDbEntity
  8
3D-EQPM
100
AcDbVertex
100
AcDbPolyFaceMeshVertex
 10
0.3984375
 20
0.1123591102659702
 30
0.0404341444373131
 70
   192
  0
VERTEX
  5
32F
330
32D
100
AcDbEntity
  8
3D-EQPM
100
AcDbVertex
100
AcDbPolyFaceMeshVertex
 10
0.4024815559387207
 20
0.1127898395061493
 30
0.0401212032884359
 70
   192
  0
VERTEX
  5
330
330
32D
100
AcDbEntity
  8
3D-EQPM
100
AcDbVertex
100
AcDbPolyFaceMeshVertex
 10
0.4062500149011611
 20
0.1140526682138443
 30
0.0392037034034729
 70
   192
  0
VERTEX
  5
331
330
32D
100
AcDbEntity
  8
3D-EQPM
100
AcDbVertex
100
AcDbPolyFaceMeshVertex
 10
0.4094860553741455
 20
0.1160615421831608
 30
0.0377441709861159
 70
   192
  0
VERTEX
  5
332
330
32D
100
AcDbEntity
  8
3D-EQPM
100
AcDbVertex
100
AcDbPolyFaceMeshVertex
 10
0.4119691550731658
 20
0.1186795569956302
 30
0.035842071287334
 70
   192
  0
VERTEX
  5
333
330
32D
100
AcDbEntity
  8
3D-EQPM
100
AcDbVertex
100
AcDbPolyFaceMeshVertex
 10
0.4135301113128662
 20
0.1217283010482788
 30
0.0336270304396749
 70
   192
  0
VERTEX
  5
334
330
32D
100
AcDbEntity
  8
3D-EQPM
100
AcDbVertex
100
AcDbPolyFaceMeshVertex
 10
0.4140624850988388
 20
0.1250000037252903
 30
0.0312500009313226
 70
   192
  0
VERTEX
  5
335
330
32D
100
AcDbEntity
  8
3D-EQPM
100
AcDbVertex
100
AcDbPolyFaceMeshVertex
 10
0.4135301113128662
 20
0.1282717064023018
 30
0.0288729686290026
 70
   192
  0
VERTEX
  5
336
330
32D
100
AcDbEntity
  8
3D-EQPM
100
AcDbVertex
100
AcDbPolyFaceMeshVertex
 10
0.4119691550731658
 20
0.1313204504549503
 30
0.0266579277813435
 70
   192
  0
VERTEX
  5
337
330
32D
100
AcDbEntity
  8
3D-EQPM
100
AcDbVertex
100
AcDbPolyFaceMeshVertex
 10
0.4094860553741455
 20
0.1339384540915489
 30
0.0247558280825615
 70
   192
  0
VERTEX
  5
338
330
32D
100
AcDbEntity
  8
3D-EQPM
100
AcDbVertex
100
AcDbPolyFaceMeshVertex
 10
0.4062500149011611
 20
0.1359473280608654
 30
0.0232962970621884
 70
   192
  0
VERTEX
  5
339
330
32D
100
AcDbEntity
  8
3D-EQPM
100
AcDbVertex
100
AcDbPolyFaceMeshVertex
 10
0.4024815559387207
 20
0.1372101679444313
 30
0.0223787971772254
 70
   192
  0
VERTEX
  5
33A
330
32D
100
AcDbEntity
  8
3D-EQPM
100
AcDbVertex
100
AcDbPolyFaceMeshVertex
 10
0.3984375
 20
0.1376408860087394
 30
0.0220658560283482
 70
   192
  0
VERTEX
  5
33B
330
32D
100
AcDbEntity
  8
3D-EQPM
100
AcDbVertex
100
AcDbPolyFaceMeshVertex
 10
0.3984375
 20
1.696241855621337
 30
2.167296051979064
 70
   192
  0
VERTEX
  5
33C
330
32D
100
AcDbEntity
  8
3D-EQPM
100
AcDbVertex
100
AcDbPolyFaceMeshVertex
 10
0.4024815559387207
 20
1.695811092853545
 30
2.167608976364135
 70
   192
  0
VERTEX
  5
33D
330
32D
100
AcDbEntity
  8
3D-EQPM
100
AcDbVertex
100
AcDbPolyFaceMeshVertex
 10
0.4062500149011611
 20
1.694548308849334
 30
2.168526470661162
 70
   192
  0
VERTEX
  5
33E
330
32D
100
AcDbEntity
  8
3D-EQPM
100
AcDbVertex
100
AcDbPolyFaceMeshVertex
 10
0.4094860553741455
 20
1.692539513111114
 30
2.169986128807067
 70
   192
  0
VERTEX
  5
33F
330
32D
100
AcDbEntity
  8
3D-EQPM
100
AcDbVertex
100
AcDbPolyFaceMeshVertex
 10
0.4119691550731658
 20
1.689921498298644
 30
2.171888172626494
 70
   192
  0
VERTEX
  5
340
330
32D
100
AcDbEntity
  8
3D-EQPM
100
AcDbVertex
100
AcDbPolyFaceMeshVertex
 10
0.4135301113128662
 20
1.686872720718383
 30
2.174103140830993
 70
   192
  0
VERTEX
  5
341
330
32D
100
AcDbEntity
  8
3D-EQPM
100
AcDbVertex
100
AcDbPolyFaceMeshVertex
 10
0.4140624850988388
 20
1.683600962162017
 30
2.176480293273925
 70
   192
  0
VERTEX
  5
342
330
32D
100
AcDbEntity
  8
3D-EQPM
100
AcDbVertex
100
AcDbPolyFaceMeshVertex
 10
0.4135301113128662
 20
1.680329382419586
 30
2.178857266902923
 70
   192
  0
VERTEX
  5
343
330
32D
100
AcDbEntity
  8
3D-EQPM
100
AcDbVertex
100
AcDbPolyFaceMeshVertex
 10
0.4119691550731658
 20
1.677280604839324
 30
2.181072413921355
 70
   192
  0
VERTEX
  5
344
330
32D
100
AcDbEntity
  8
3D-EQPM
100
AcDbVertex
100
AcDbPolyFaceMeshVertex
 10
0.4094860553741455
 20
1.674662590026855
 30
2.182974457740783
 70
   192
  0
VERTEX
  5
345
330
32D
100
AcDbEntity
  8
3D-EQPM
100
AcDbVertex
100
AcDbPolyFaceMeshVertex
 10
0.4062500149011611
 20
1.6726536154747
 30
2.184433937072753
 70
   192
  0
VERTEX
  5
346
330
32D
100
AcDbEntity
  8
3D-EQPM
100
AcDbVertex
100
AcDbPolyFaceMeshVertex
 10
0.4024815559387207
 20
1.671390831470489
 30
2.185351431369781
 70
   192
  0
VERTEX
  5
347
330
32D
100
AcDbEntity
  8
3D-EQPM
100
AcDbVertex
100
AcDbPolyFaceMeshVertex
 10
0.3984375
 20
1.670960068702697
 30
2.185664355754851
 70
   192
  0
VERTEX
  5
348
330
32D
100
AcDbEntity
  8
3D-EQPM
100
AcDbFaceRecord
 10
0.0
 20
0.0
 30
0.0
 70
   128
 71
   -12
 72
    15
 73
   -16
 74
    11
  0
VERTEX
  5
349
330
32D
100
AcDbEntity
  8
3D-EQPM
100
AcDbFaceRecord
 10
0.0
 20
0.0
 30
0.0
 70
   128
 71
    14
 72
   -15
 73
    13
  0
VERTEX
  5
34A
330
32D
100
AcDbEntity
  8
3D-EQPM
100
AcDbFaceRecord
 10
0.0
 20
0.0
 30
0.0
 70
   128
 71
    18
 72
   -19
 73
    -8
  0
VERTEX
  5
34B
330
32D
100
AcDbEntity
  8
3D-EQPM
100
AcDbFaceRecord
 10
0.0
 20
0.0
 30
0.0
 70
   128
 71
    17
 72
   -18
 73
   -10
  0
VERTEX
  5
34C
330
32D
100
AcDbEntity
  8
3D-EQPM
100
AcDbFaceRecord
 10
0.0
 20
0.0
 30
0.0
 70
   128
 71
    16
 72
   -17
 73
   -11
  0
VERTEX
  5
34D
330
32D
100
AcDbEntity
  8
3D-EQPM
100
AcDbFaceRecord
 10
0.0
 20
0.0
 30
0.0
 70
   128
 71
    12
 72
   -13
 73
   -15
  0
VERTEX
  5
34E
330
32D
100
AcDbEntity
  8
3D-EQPM
100
AcDbFaceRecord
 10
0.0
 20
0.0
 30
0.0
 70
   128
 71
    -7
 72
    19
 73
   -20
  0
VERTEX
  5
34F
330
32D
100
AcDbEntity
  8
3D-EQPM
100
AcDbFaceRecord
 10
0.0
 20
0.0
 30
0.0
 70
   128
 71
     8
 72
    -9
 73
   -18
  0
VERTEX
  5
350
330
32D
100
AcDbEntity
  8
3D-EQPM
100
AcDbFaceRecord
 10
0.0
 20
0.0
 30
0.0
 70
   128
 71
   -10
 72
   -18
 73
     9
  0
VERTEX
  5
351
330
32D
100
AcDbEntity
  8
3D-EQPM
100
AcDbFaceRecord
 10
0.0
 20
0.0
 30
0.0
 70
   128
 71
    10
 72
   -11
 73
   -17
  0
VERTEX
  5
352
330
32D
100
AcDbEntity
  8
3D-EQPM
100
AcDbFaceRecord
 10
0.0
 20
0.0
 30
0.0
 70
   128
 71
   -19
 72
     7
 73
    -8
  0
VERTEX
  5
353
330
32D
100
AcDbEntity
  8
3D-EQPM
100
AcDbFaceRecord
 10
0.0
 20
0.0
 30
0.0
 70
   128
 71
    22
 72
   -23
 73
    -5
  0
VERTEX
  5
354
330
32D
100
AcDbEntity
  8
3D-EQPM
100
AcDbFaceRecord
 10
0.0
 20
0.0
 30
0.0
 70
   128
 71
    21
 72
   -22
 73
    -6
  0
VERTEX
  5
355
330
32D
100
AcDbEntity
  8
3D-EQPM
100
AcDbFaceRecord
 10
0.0
 20
0.0
 30
0.0
 70
   128
 71
    25
 72
    26
 73
     1
 74
    -2
  0
VERTEX
  5
356
330
32D
100
AcDbEntity
  8
3D-EQPM
100
AcDbFaceRecord
 10
0.0
 20
0.0
 30
0.0
 70
   128
 71
    24
 72
   -25
 73
    -2
  0
VERTEX
  5
357
330
32D
100
AcDbEntity
  8
3D-EQPM
100
AcDbFaceRecord
 10
0.0
 20
0.0
 30
0.0
 70
   128
 71
    23
 72
   -24
 73
    -3
  0
VERTEX
  5
358
330
32D
100
AcDbEntity
  8
3D-EQPM
100
AcDbFaceRecord
 10
0.0
 20
0.0
 30
0.0
 70
   128
 71
     6
 72
    -7
 73
   -21
  0
VERTEX
  5
359
330
32D
100
AcDbEntity
  8
3D-EQPM
100
AcDbFaceRecord
 10
0.0
 20
0.0
 30
0.0
 70
   128
 71
    -6
 72
   -22
 73
     5
  0
VERTEX
  5
35A
330
32D
100
AcDbEntity
  8
3D-EQPM
100
AcDbFaceRecord
 10
0.0
 20
0.0
 30
0.0
 70
   128
 71
   -23
 72
     4
 73
    -5
  0
VERTEX
  5
35B
330
32D
100
AcDbEntity
  8
3D-EQPM
100
AcDbFaceRecord
 10
0.0
 20
0.0
 30
0.0
 70
   128
 71
   -23
 72
     3
 73
    -4
  0
VERTEX
  5
35C
330
32D
100
AcDbEntity
  8
3D-EQPM
100
AcDbFaceRecord
 10
0.0
 20
0.0
 30
0.0
 70
   128
 71
     2
 72
    -3
 73
   -24
  0
VERTEX
  5
35D
330
32D
100
AcDbEntity
  8
3D-EQPM
100
AcDbFaceRecord
 10
0.0
 20
0.0
 30
0.0
 70
   128
 71
   -21
 72
    -7
 73
    20
  0
SEQEND
  5
35E
330
32D
100
AcDbEntity
  8
3D-EQPM
  0
POLYLINE
  5
35F
330
A9
100
AcDbEntity
  8
3D-EQPM
100
AcDbPolyFaceMesh
 66
     1
 10
0.0
 20
0.0
 30
0.0
 70
    64
 71
    26
 72
    20
1001
REVIT
1002
{
1070
     4
1000
14409
1002
}
  0
VERTEX
  5
360
330
35F
100
AcDbEntity
  8
3D-EQPM
100
AcDbVertex
100
AcDbPolyFaceMeshVertex
 10
0.3984375
 20
0.1376408860087394
 30
0.0220658560283482
 70
   192
  0
VERTEX
  5
361
330
35F
100
AcDbEntity
  8
3D-EQPM
100
AcDbVertex
100
AcDbPolyFaceMeshVertex
 10
0.3943934440612792
 20
0.1372101679444313
 30
0.0223787971772254
 70
   192
  0
VERTEX
  5
362
330
35F
100
AcDbEntity
  8
3D-EQPM
100
AcDbVertex
100
AcDbPolyFaceMeshVertex
 10
0.3906249850988388
 20
0.1359473280608654
 30
0.0232962970621884
 70
   192
  0
VERTEX
  5
363
330
35F
100
AcDbEntity
  8
3D-EQPM
100
AcDbVertex
100
AcDbPolyFaceMeshVertex
 10
0.3873889446258544
 20
0.1339384540915489
 30
0.0247558280825615
 70
   192
  0
VERTEX
  5
364
330
35F
100
AcDbEntity
  8
3D-EQPM
100
AcDbVertex
100
AcDbPolyFaceMeshVertex
 10
0.3849058449268341
 20
0.1313204504549503
 30
0.0266579277813435
 70
   192
  0
VERTEX
  5
365
330
35F
100
AcDbEntity
  8
3D-EQPM
100
AcDbVertex
100
AcDbPolyFaceMeshVertex
 10
0.3833448886871337
 20
0.1282717064023018
 30
0.0288729686290026
 70
   192
  0
VERTEX
  5
366
330
35F
100
AcDbEntity
  8
3D-EQPM
100
AcDbVertex
100
AcDbPolyFaceMeshVertex
 10
0.3828125149011611
 20
0.1250000037252903
 30
0.0312500009313226
 70
   192
  0
VERTEX
  5
367
330
35F
100
AcDbEntity
  8
3D-EQPM
100
AcDbVertex
100
AcDbPolyFaceMeshVertex
 10
0.3833448886871337
 20
0.1217283010482788
 30
0.0336270304396749
 70
   192
  0
VERTEX
  5
368
330
35F
100
AcDbEntity
  8
3D-EQPM
100
AcDbVertex
100
AcDbPolyFaceMeshVertex
 10
0.3849058449268341
 20
0.1186795569956302
 30
0.035842071287334
 70
   192
  0
VERTEX
  5
369
330
35F
100
AcDbEntity
  8
3D-EQPM
100
AcDbVertex
100
AcDbPolyFaceMeshVertex
 10
0.3873889446258544
 20
0.1160615421831608
 30
0.0377441709861159
 70
   192
  0
VERTEX
  5
36A
330
35F
100
AcDbEntity
  8
3D-EQPM
100
AcDbVertex
100
AcDbPolyFaceMeshVertex
 10
0.3906249850988388
 20
0.1140526682138443
 30
0.0392037034034729
 70
   192
  0
VERTEX
  5
36B
330
35F
100
AcDbEntity
  8
3D-EQPM
100
AcDbVertex
100
AcDbPolyFaceMeshVertex
 10
0.3943934440612792
 20
0.1127898395061493
 30
0.0401212032884359
 70
   192
  0
VERTEX
  5
36C
330
35F
100
AcDbEntity
  8
3D-EQPM
100
AcDbVertex
100
AcDbPolyFaceMeshVertex
 10
0.3984375
 20
0.1123591102659702
 30
0.0404341444373131
 70
   192
  0
VERTEX
  5
36D
330
35F
100
AcDbEntity
  8
3D-EQPM
100
AcDbVertex
100
AcDbPolyFaceMeshVertex
 10
0.3984375
 20
1.670960068702697
 30
2.185664355754851
 70
   192
  0
VERTEX
  5
36E
330
35F
100
AcDbEntity
  8
3D-EQPM
100
AcDbVertex
100
AcDbPolyFaceMeshVertex
 10
0.3943934440612792
 20
1.671390831470489
 30
2.185351431369781
 70
   192
  0
VERTEX
  5
36F
330
35F
100
AcDbEntity
  8
3D-EQPM
100
AcDbVertex
100
AcDbPolyFaceMeshVertex
 10
0.3906249850988388
 20
1.6726536154747
 30
2.184433937072753
 70
   192
  0
VERTEX
  5
370
330
35F
100
AcDbEntity
  8
3D-EQPM
100
AcDbVertex
100
AcDbPolyFaceMeshVertex
 10
0.3873889446258544
 20
1.674662590026855
 30
2.182974457740783
 70
   192
  0
VERTEX
  5
371
330
35F
100
AcDbEntity
  8
3D-EQPM
100
AcDbVertex
100
AcDbPolyFaceMeshVertex
 10
0.3849058449268341
 20
1.677280604839324
 30
2.181072413921355
 70
   192
  0
VERTEX
  5
372
330
35F
100
AcDbEntity
  8
3D-EQPM
100
AcDbVertex
100
AcDbPolyFaceMeshVertex
 10
0.3833448886871337
 20
1.680329382419586
 30
2.178857266902923
 70
   192
  0
VERTEX
  5
373
330
35F
100
AcDbEntity
  8
3D-EQPM
100
AcDbVertex
100
AcDbPolyFaceMeshVertex
 10
0.3828125149011611
 20
1.683600962162017
 30
2.176480293273925
 70
   192
  0
VERTEX
  5
374
330
35F
100
AcDbEntity
  8
3D-EQPM
100
AcDbVertex
100
AcDbPolyFaceMeshVertex
 10
0.3833448886871337
 20
1.686872720718383
 30
2.174103140830993
 70
   192
  0
VERTEX
  5
375
330
35F
100
AcDbEntity
  8
3D-EQPM
100
AcDbVertex
100
AcDbPolyFaceMeshVertex
 10
0.3849058449268341
 20
1.689921498298644
 30
2.171888172626494
 70
   192
  0
VERTEX
  5
376
330
35F
100
AcDbEntity
  8
3D-EQPM
100
AcDbVertex
100
AcDbPolyFaceMeshVertex
 10
0.3873889446258544
 20
1.692539513111114
 30
2.169986128807067
 70
   192
  0
VERTEX
  5
377
330
35F
100
AcDbEntity
  8
3D-EQPM
100
AcDbVertex
100
AcDbPolyFaceMeshVertex
 10
0.3906249850988388
 20
1.694548308849334
 30
2.168526470661162
 70
   192
  0
VERTEX
  5
378
330
35F
100
AcDbEntity
  8
3D-EQPM
100
AcDbVertex
100
AcDbPolyFaceMeshVertex
 10
0.3943934440612792
 20
1.695811092853545
 30
2.167608976364135
 70
   192
  0
VERTEX
  5
379
330
35F
100
AcDbEntity
  8
3D-EQPM
100
AcDbVertex
100
AcDbPolyFaceMeshVertex
 10
0.3984375
 20
1.696241855621337
 30
2.167296051979064
 70
   192
  0
VERTEX
  5
37A
330
35F
100
AcDbEntity
  8
3D-EQPM
100
AcDbFaceRecord
 10
0.0
 20
0.0
 30
0.0
 70
   128
 71
   -12
 72
    15
 73
   -16
 74
    11
  0
VERTEX
  5
37B
330
35F
100
AcDbEntity
  8
3D-EQPM
100
AcDbFaceRecord
 10
0.0
 20
0.0
 30
0.0
 70
   128
 71
    14
 72
   -15
 73
    13
  0
VERTEX
  5
37C
330
35F
100
AcDbEntity
  8
3D-EQPM
100
AcDbFaceRecord
 10
0.0
 20
0.0
 30
0.0
 70
   128
 71
    18
 72
   -19
 73
    -8
  0
VERTEX
  5
37D
330
35F
100
AcDbEntity
  8
3D-EQPM
100
AcDbFaceRecord
 10
0.0
 20
0.0
 30
0.0
 70
   128
 71
    17
 72
   -18
 73
   -10
  0
VERTEX
  5
37E
330
35F
100
AcDbEntity
  8
3D-EQPM
100
AcDbFaceRecord
 10
0.0
 20
0.0
 30
0.0
 70
   128
 71
    16
 72
   -17
 73
   -11
  0
VERTEX
  5
37F
330
35F
100
AcDbEntity
  8
3D-EQPM
100
AcDbFaceRecord
 10
0.0
 20
0.0
 30
0.0
 70
   128
 71
    12
 72
   -13
 73
   -15
  0
VERTEX
  5
380
330
35F
100
AcDbEntity
  8
3D-EQPM
100
AcDbFaceRecord
 10
0.0
 20
0.0
 30
0.0
 70
   128
 71
    -7
 72
    19
 73
   -20
  0
VERTEX
  5
381
330
35F
100
AcDbEntity
  8
3D-EQPM
100
AcDbFaceRecord
 10
0.0
 20
0.0
 30
0.0
 70
   128
 71
     8
 72
    -9
 73
   -18
  0
VERTEX
  5
382
330
35F
100
AcDbEntity
  8
3D-EQPM
100
AcDbFaceRecord
 10
0.0
 20
0.0
 30
0.0
 70
   128
 71
   -10
 72
   -18
 73
     9
  0
VERTEX
  5
383
330
35F
100
AcDbEntity
  8
3D-EQPM
100
AcDbFaceRecord
 10
0.0
 20
0.0
 30
0.0
 70
   128
 71
    10
 72
   -11
 73
   -17
  0
VERTEX
  5
384
330
35F
100
AcDbEntity
  8
3D-EQPM
100
AcDbFaceRecord
 10
0.0
 20
0.0
 30
0.0
 70
   128
 71
   -19
 72
     7
 73
    -8
  0
VERTEX
  5
385
330
35F
100
AcDbEntity
  8
3D-EQPM
100
AcDbFaceRecord
 10
0.0
 20
0.0
 30
0.0
 70
   128
 71
    -5
 72
    22
 73
   -23
 74
     4
  0
VERTEX
  5
386
330
35F
100
AcDbEntity
  8
3D-EQPM
100
AcDbFaceRecord
 10
0.0
 20
0.0
 30
0.0
 70
   128
 71
    -6
 72
    21
 73
   -22
 74
     5
  0
VERTEX
  5
387
330
35F
100
AcDbEntity
  8
3D-EQPM
100
AcDbFaceRecord
 10
0.0
 20
0.0
 30
0.0
 70
   128
 71
    25
 72
    26
 73
     1
 74
    -2
  0
VERTEX
  5
388
330
35F
100
AcDbEntity
  8
3D-EQPM
100
AcDbFaceRecord
 10
0.0
 20
0.0
 30
0.0
 70
   128
 71
    24
 72
   -25
 73
    -2
  0
VERTEX
  5
389
330
35F
100
AcDbEntity
  8
3D-EQPM
100
AcDbFaceRecord
 10
0.0
 20
0.0
 30
0.0
 70
   128
 71
    23
 72
   -24
 73
    -3
  0
VERTEX
  5
38A
330
35F
100
AcDbEntity
  8
3D-EQPM
100
AcDbFaceRecord
 10
0.0
 20
0.0
 30
0.0
 70
   128
 71
   -21
 72
     6
 73
    -7
  0
VERTEX
  5
38B
330
35F
100
AcDbEntity
  8
3D-EQPM
100
AcDbFaceRecord
 10
0.0
 20
0.0
 30
0.0
 70
   128
 71
   -23
 72
     3
 73
    -4
  0
VERTEX
  5
38C
330
35F
100
AcDbEntity
  8
3D-EQPM
100
AcDbFaceRecord
 10
0.0
 20
0.0
 30
0.0
 70
   128
 71
     2
 72
    -3
 73
   -24
  0
VERTEX
  5
38D
330
35F
100
AcDbEntity
  8
3D-EQPM
100
AcDbFaceRecord
 10
0.0
 20
0.0
 30
0.0
 70
   128
 71
   -21
 72
    -7
 73
    20
  0
SEQEND
  5
38E
330
35F
100
AcDbEntity
  8
3D-EQPM
  0
POLYLINE
  5
38F
330
A9
100
AcDbEntity
  8
3D-EQPM
100
AcDbPolyFaceMesh
 66
     1
 10
0.0
 20
0.0
 30
0.0
 70
    64
 71
    24
 72
    21
1001
REVIT
1002
{
1070
     4
1000
14409
1002
}
  0
VERTEX
  5
390
330
38F
100
AcDbEntity
  8
3D-EQPM
100
AcDbVertex
100
AcDbPolyFaceMeshVertex
 10
-0.0040440475568175
 20
0.1338711977005005
 30
0.0190398367121816
 70
   192
  0
VERTEX
  5
391
330
38F
100
AcDbEntity
  8
3D-EQPM
100
AcDbVertex
100
AcDbPolyFaceMeshVertex
 10
-0.0078125002328306
 20
0.1329537034034729
 30
0.0203026682138443
 70
   192
  0
VERTEX
  5
392
330
38F
100
AcDbEntity
  8
3D-EQPM
100
AcDbVertex
100
AcDbPolyFaceMeshVertex
 10
-0.0110485434997827
 20
0.1314941681921482
 30
0.0223115407861769
 70
   192
  0
VERTEX
  5
393
330
38F
100
AcDbEntity
  8
3D-EQPM
100
AcDbVertex
100
AcDbPolyFaceMeshVertex
 10
-0.0135316466912627
 20
0.1295920684933662
 30
0.0249295542016625
 70
   192
  0
VERTEX
  5
394
330
38F
100
AcDbEntity
  8
3D-EQPM
100
AcDbVertex
100
AcDbPolyFaceMeshVertex
 10
-0.0150925903581083
 20
0.1273770332336426
 30
0.0279782954603434
 70
   192
  0
VERTEX
  5
395
330
38F
100
AcDbEntity
  8
3D-EQPM
100
AcDbVertex
100
AcDbPolyFaceMeshVertex
 10
-0.0156250004656613
 20
0.1250000037252903
 30
0.0312500009313226
 70
   192
  0
VERTEX
  5
396
330
38F
100
AcDbEntity
  8
3D-EQPM
100
AcDbVertex
100
AcDbPolyFaceMeshVertex
 10
-0.0150925903581083
 20
0.1226229630410671
 30
0.0345217036083341
 70
   192
  0
VERTEX
  5
397
330
38F
100
AcDbEntity
  8
3D-EQPM
100
AcDbVertex
100
AcDbPolyFaceMeshVertex
 10
-0.0135316466912627
 20
0.1204079277813434
 30
0.0375704448670149
 70
   192
  0
VERTEX
  5
398
330
38F
100
AcDbEntity
  8
3D-EQPM
100
AcDbVertex
100
AcDbPolyFaceMeshVertex
 10
-0.0110485434997827
 20
0.1185058280825615
 30
0.0401884596794844
 70
   192
  0
VERTEX
  5
399
330
38F
100
AcDbEntity
  8
3D-EQPM
100
AcDbVertex
100
AcDbPolyFaceMeshVertex
 10
-0.0078125002328306
 20
0.1170462928712368
 30
0.0421973336488009
 70
   192
  0
VERTEX
  5
39A
330
38F
100
AcDbEntity
  8
3D-EQPM
100
AcDbVertex
100
AcDbPolyFaceMeshVertex
 10
-0.0040440475568175
 20
0.1161287985742092
 30
0.0434601623564959
 70
   192
  0
VERTEX
  5
39B
330
38F
100
AcDbEntity
  8
3D-EQPM
100
AcDbVertex
100
AcDbPolyFaceMeshVertex
 10
0.0
 20
0.1158158518373966
 30
0.0438908915966749
 70
   192
  0
VERTEX
  5
39C
330
38F
100
AcDbEntity
  8
3D-EQPM
100
AcDbVertex
100
AcDbPolyFaceMeshVertex
 10
0.0040440475568175
 20
0.1161287985742092
 30
0.0434601623564959
 70
   192
  0
VERTEX
  5
39D
330
38F
100
AcDbEntity
  8
3D-EQPM
100
AcDbVertex
100
AcDbPolyFaceMeshVertex
 10
0.0078125002328306
 20
0.1170462928712368
 30
0.0421973336488009
 70
   192
  0
VERTEX
  5
39E
330
38F
100
AcDbEntity
  8
3D-EQPM
100
AcDbVertex
100
AcDbPolyFaceMeshVertex
 10
0.0110485434997827
 20
0.1185058280825615
 30
0.0401884596794844
 70
   192
  0
VERTEX
  5
39F
330
38F
100
AcDbEntity
  8
3D-EQPM
100
AcDbVertex
100
AcDbPolyFaceMeshVertex
 10
0.0135316466912627
 20
0.1204079277813434
 30
0.0375704448670149
 70
   192
  0
VERTEX
  5
3A0
330
38F
100
AcDbEntity
  8
3D-EQPM
100
AcDbVertex
100
AcDbPolyFaceMeshVertex
 10
0.0150925903581083
 20
0.1226229630410671
 30
0.0345217036083341
 70
   192
  0
VERTEX
  5
3A1
330
38F
100
AcDbEntity
  8
3D-EQPM
100
AcDbVertex
100
AcDbPolyFaceMeshVertex
 10
0.0156250004656613
 20
0.1250000037252903
 30
0.0312500009313226
 70
   192
  0
VERTEX
  5
3A2
330
38F
100
AcDbEntity
  8
3D-EQPM
100
AcDbVertex
100
AcDbPolyFaceMeshVertex
 10
0.0150925903581083
 20
0.1273770332336426
 30
0.0279782954603434
 70
   192
  0
VERTEX
  5
3A3
330
38F
100
AcDbEntity
  8
3D-EQPM
100
AcDbVertex
100
AcDbPolyFaceMeshVertex
 10
0.0135316466912627
 20
0.1295920684933662
 30
0.0249295542016625
 70
   192
  0
VERTEX
  5
3A4
330
38F
100
AcDbEntity
  8
3D-EQPM
100
AcDbVertex
100
AcDbPolyFaceMeshVertex
 10
0.0110485434997827
 20
0.1314941681921482
 30
0.0223115407861769
 70
   192
  0
VERTEX
  5
3A5
330
38F
100
AcDbEntity
  8
3D-EQPM
100
AcDbVertex
100
AcDbPolyFaceMeshVertex
 10
0.0078125002328306
 20
0.1329537034034729
 30
0.0203026682138443
 70
   192
  0
VERTEX
  5
3A6
330
38F
100
AcDbEntity
  8
3D-EQPM
100
AcDbVertex
100
AcDbPolyFaceMeshVertex
 10
0.0040440475568175
 20
0.1338711977005005
 30
0.0190398367121816
 70
   192
  0
VERTEX
  5
3A7
330
38F
100
AcDbEntity
  8
3D-EQPM
100
AcDbVertex
100
AcDbPolyFaceMeshVertex
 10
0.0
 20
0.1341841444373131
 30
0.0186091088689864
 70
   192
  0
VERTEX
  5
3A8
330
38F
100
AcDbEntity
  8
3D-EQPM
100
AcDbFaceRecord
 10
0.0
 20
0.0
 30
0.0
 70
   128
 71
     7
 72
    -6
 73
    -9
  0
VERTEX
  5
3A9
330
38F
100
AcDbEntity
  8
3D-EQPM
100
AcDbFaceRecord
 10
0.0
 20
0.0
 30
0.0
 70
   128
 71
     8
 72
    -7
 73
     9
  0
VERTEX
  5
3AA
330
38F
100
AcDbEntity
  8
3D-EQPM
100
AcDbFaceRecord
 10
0.0
 20
0.0
 30
0.0
 70
   128
 71
   -22
 72
     6
 73
    -5
  0
VERTEX
  5
3AB
330
38F
100
AcDbEntity
  8
3D-EQPM
100
AcDbFaceRecord
 10
0.0
 20
0.0
 30
0.0
 70
   128
 71
    -9
 72
    -6
 73
    10
  0
VERTEX
  5
3AC
330
38F
100
AcDbEntity
  8
3D-EQPM
100
AcDbFaceRecord
 10
0.0
 20
0.0
 30
0.0
 70
   128
 71
   -10
 72
    -6
 73
   -14
  0
VERTEX
  5
3AD
330
38F
100
AcDbEntity
  8
3D-EQPM
100
AcDbFaceRecord
 10
0.0
 20
0.0
 30
0.0
 70
   128
 71
     3
 72
    -2
 73
     4
  0
VERTEX
  5
3AE
330
38F
100
AcDbEntity
  8
3D-EQPM
100
AcDbFaceRecord
 10
0.0
 20
0.0
 30
0.0
 70
   128
 71
     5
 72
    -4
 73
    -2
  0
VERTEX
  5
3AF
330
38F
100
AcDbEntity
  8
3D-EQPM
100
AcDbFaceRecord
 10
0.0
 20
0.0
 30
0.0
 70
   128
 71
    -2
 72
   -22
 73
    -5
  0
VERTEX
  5
3B0
330
38F
100
AcDbEntity
  8
3D-EQPM
100
AcDbFaceRecord
 10
0.0
 20
0.0
 30
0.0
 70
   128
 71
   -22
 72
     2
 73
    -1
 74
    23
  0
VERTEX
  5
3B1
330
38F
100
AcDbEntity
  8
3D-EQPM
100
AcDbFaceRecord
 10
0.0
 20
0.0
 30
0.0
 70
   128
 71
    24
 72
   -23
 73
     1
  0
VERTEX
  5
3B2
330
38F
100
AcDbEntity
  8
3D-EQPM
100
AcDbFaceRecord
 10
0.0
 20
0.0
 30
0.0
 70
   128
 71
    11
 72
   -10
 73
   -14
  0
VERTEX
  5
3B3
330
38F
100
AcDbEntity
  8
3D-EQPM
100
AcDbFaceRecord
 10
0.0
 20
0.0
 30
0.0
 70
   128
 71
    14
 72
    13
 73
   -12
  0
VERTEX
  5
3B4
330
38F
100
AcDbEntity
  8
3D-EQPM
100
AcDbFaceRecord
 10
0.0
 20
0.0
 30
0.0
 70
   128
 71
   -14
 72
    -6
 73
   -20
  0
VERTEX
  5
3B5
330
38F
100
AcDbEntity
  8
3D-EQPM
100
AcDbFaceRecord
 10
0.0
 20
0.0
 30
0.0
 70
   128
 71
   -14
 72
    17
 73
   -16
  0
VERTEX
  5
3B6
330
38F
100
AcDbEntity
  8
3D-EQPM
100
AcDbFaceRecord
 10
0.0
 20
0.0
 30
0.0
 70
   128
 71
    15
 72
   -14
 73
    16
  0
VERTEX
  5
3B7
330
38F
100
AcDbEntity
  8
3D-EQPM
100
AcDbFaceRecord
 10
0.0
 20
0.0
 30
0.0
 70
   128
 71
   -17
 72
   -14
 73
    18
  0
VERTEX
  5
3B8
330
38F
100
AcDbEntity
  8
3D-EQPM
100
AcDbFaceRecord
 10
0.0
 20
0.0
 30
0.0
 70
   128
 71
    21
 72
   -20
 73
    22
  0
VERTEX
  5
3B9
330
38F
100
AcDbEntity
  8
3D-EQPM
100
AcDbFaceRecord
 10
0.0
 20
0.0
 30
0.0
 70
   128
 71
    19
 72
   -18
 73
    20
  0
VERTEX
  5
3BA
330
38F
100
AcDbEntity
  8
3D-EQPM
100
AcDbFaceRecord
 10
0.0
 20
0.0
 30
0.0
 70
   128
 71
   -22
 72
   -20
 73
    -6
  0
VERTEX
  5
3BB
330
38F
100
AcDbEntity
  8
3D-EQPM
100
AcDbFaceRecord
 10
0.0
 20
0.0
 30
0.0
 70
   128
 71
   -20
 72
   -18
 73
   -14
  0
VERTEX
  5
3BC
330
38F
100
AcDbEntity
  8
3D-EQPM
100
AcDbFaceRecord
 10
0.0
 20
0.0
 30
0.0
 70
   128
 71
    12
 72
   -11
 73
   -14
  0
SEQEND
  5
3BD
330
38F
100
AcDbEntity
  8
3D-EQPM
  0
POLYLINE
  5
3BE
330
A9
100
AcDbEntity
  8
3D-EQPM
100
AcDbPolyFaceMesh
 66
     1
 10
0.0
 20
0.0
 30
0.0
 70
    64
 71
    24
 72
    21
1001
REVIT
1002
{
1070
     4
1000
14409
1002
}
  0
VERTEX
  5
3BF
330
3BE
100
AcDbEntity
  8
3D-EQPM
100
AcDbVertex
100
AcDbPolyFaceMeshVertex
 10
0.0
 20
2.00918412208557
 30
1.380876392126083
 70
   192
  0
VERTEX
  5
3C0
330
3BE
100
AcDbEntity
  8
3D-EQPM
100
AcDbVertex
100
AcDbPolyFaceMeshVertex
 10
-0.0040440475568175
 20
2.0088711977005
 30
1.381307065486907
 70
   192
  0
VERTEX
  5
3C1
330
3BE
100
AcDbEntity
  8
3D-EQPM
100
AcDbVertex
100
AcDbPolyFaceMeshVertex
 10
-0.0078125002328306
 20
2.007953703403472
 30
1.382569938898086
 70
   192
  0
VERTEX
  5
3C2
330
3BE
100
AcDbEntity
  8
3D-EQPM
100
AcDbVertex
100
AcDbPolyFaceMeshVertex
 10
-0.0110485434997827
 20
2.006494224071502
 30
1.384578824043273
 70
   192
  0
VERTEX
  5
3C3
330
3BE
100
AcDbEntity
  8
3D-EQPM
100
AcDbVertex
100
AcDbPolyFaceMeshVertex
 10
-0.0135316466912627
 20
2.00459200143814
 30
1.387196838855743
 70
   192
  0
VERTEX
  5
3C4
330
3BE
100
AcDbEntity
  8
3D-EQPM
100
AcDbVertex
100
AcDbPolyFaceMeshVertex
 10
-0.0150925903581083
 20
2.002377033233642
 30
1.390245527029037
 70
   192
  0
VERTEX
  5
3C5
330
3BE
100
AcDbEntity
  8
3D-EQPM
100
AcDbVertex
100
AcDbPolyFaceMeshVertex
 10
-0.0156250004656613
 20
2.000000059604644
 30
1.393517196178436
 70
   192
  0
VERTEX
  5
3C6
330
3BE
100
AcDbEntity
  8
3D-EQPM
100
AcDbVertex
100
AcDbPolyFaceMeshVertex
 10
-0.0150925903581083
 20
1.997622907161712
 30
1.396788954734802
 70
   192
  0
VERTEX
  5
3C7
330
3BE
100
AcDbEntity
  8
3D-EQPM
100
AcDbVertex
100
AcDbPolyFaceMeshVertex
 10
-0.0135316466912627
 20
1.995407938957214
 30
1.399837642908096
 70
   192
  0
VERTEX
  5
3C8
330
3BE
100
AcDbEntity
  8
3D-EQPM
100
AcDbVertex
100
AcDbPolyFaceMeshVertex
 10
-0.0110485434997827
 20
1.993505895137786
 30
1.402455657720565
 70
   192
  0
VERTEX
  5
3C9
330
3BE
100
AcDbEntity
  8
3D-EQPM
100
AcDbVertex
100
AcDbPolyFaceMeshVertex
 10
-0.0078125002328306
 20
1.992046236991882
 30
1.404464542865752
 70
   192
  0
VERTEX
  5
3CA
330
3BE
100
AcDbEntity
  8
3D-EQPM
100
AcDbVertex
100
AcDbPolyFaceMeshVertex
 10
-0.0040440475568175
 20
1.991128742694854
 30
1.405727416276931
 70
   192
  0
VERTEX
  5
3CB
330
3BE
100
AcDbEntity
  8
3D-EQPM
100
AcDbVertex
100
AcDbPolyFaceMeshVertex
 10
0.0000000000000002
 20
1.990815818309783
 30
1.406158089637756
 70
   192
  0
VERTEX
  5
3CC
330
3BE
100
AcDbEntity
  8
3D-EQPM
100
AcDbVertex
100
AcDbPolyFaceMeshVertex
 10
0.0040440475568175
 20
1.991128742694854
 30
1.405727416276931
 70
   192
  0
VERTEX
  5
3CD
330
3BE
100
AcDbEntity
  8
3D-EQPM
100
AcDbVertex
100
AcDbPolyFaceMeshVertex
 10
0.0078125002328306
 20
1.992046236991882
 30
1.404464542865752
 70
   192
  0
VERTEX
  5
3CE
330
3BE
100
AcDbEntity
  8
3D-EQPM
100
AcDbVertex
100
AcDbPolyFaceMeshVertex
 10
0.0110485434997827
 20
1.993505895137786
 30
1.402455657720565
 70
   192
  0
VERTEX
  5
3CF
330
3BE
100
AcDbEntity
  8
3D-EQPM
100
AcDbVertex
100
AcDbPolyFaceMeshVertex
 10
0.0135316466912627
 20
1.995407938957214
 30
1.399837642908096
 70
   192
  0
VERTEX
  5
3D0
330
3BE
100
AcDbEntity
  8
3D-EQPM
100
AcDbVertex
100
AcDbPolyFaceMeshVertex
 10
0.0150925903581083
 20
1.997622907161712
 30
1.396788954734802
 70
   192
  0
VERTEX
  5
3D1
330
3BE
100
AcDbEntity
  8
3D-EQPM
100
AcDbVertex
100
AcDbPolyFaceMeshVertex
 10
0.0156250004656613
 20
2.000000059604644
 30
1.393517196178436
 70
   192
  0
VERTEX
  5
3D2
330
3BE
100
AcDbEntity
  8
3D-EQPM
100
AcDbVertex
100
AcDbPolyFaceMeshVertex
 10
0.0150925903581083
 20
2.002377033233642
 30
1.390245527029037
 70
   192
  0
VERTEX
  5
3D3
330
3BE
100
AcDbEntity
  8
3D-EQPM
100
AcDbVertex
100
AcDbPolyFaceMeshVertex
 10
0.0135316466912627
 20
2.00459200143814
 30
1.387196838855743
 70
   192
  0
VERTEX
  5
3D4
330
3BE
100
AcDbEntity
  8
3D-EQPM
100
AcDbVertex
100
AcDbPolyFaceMeshVertex
 10
0.0110485434997827
 20
2.006494224071502
 30
1.384578824043273
 70
   192
  0
VERTEX
  5
3D5
330
3BE
100
AcDbEntity
  8
3D-EQPM
100
AcDbVertex
100
AcDbPolyFaceMeshVertex
 10
0.0078125002328306
 20
2.007953703403472
 30
1.382569938898086
 70
   192
  0
VERTEX
  5
3D6
330
3BE
100
AcDbEntity
  8
3D-EQPM
100
AcDbVertex
100
AcDbPolyFaceMeshVertex
 10
0.0040440475568175
 20
2.0088711977005
 30
1.381307065486907
 70
   192
  0
VERTEX
  5
3D7
330
3BE
100
AcDbEntity
  8
3D-EQPM
100
AcDbFaceRecord
 10
0.0
 20
0.0
 30
0.0
 70
   128
 71
     7
 72
     8
 73
    -9
  0
VERTEX
  5
3D8
330
3BE
100
AcDbEntity
  8
3D-EQPM
100
AcDbFaceRecord
 10
0.0
 20
0.0
 30
0.0
 70
   128
 71
    -4
 72
    -7
 73
    -9
  0
VERTEX
  5
3D9
330
3BE
100
AcDbEntity
  8
3D-EQPM
100
AcDbFaceRecord
 10
0.0
 20
0.0
 30
0.0
 70
   128
 71
    10
 72
    11
 73
   -12
  0
VERTEX
  5
3DA
330
3BE
100
AcDbEntity
  8
3D-EQPM
100
AcDbFaceRecord
 10
0.0
 20
0.0
 30
0.0
 70
   128
 71
   -10
 72
   -12
 73
     9
  0
VERTEX
  5
3DB
330
3BE
100
AcDbEntity
  8
3D-EQPM
100
AcDbFaceRecord
 10
0.0
 20
0.0
 30
0.0
 70
   128
 71
    -4
 72
    -9
 73
   -12
  0
VERTEX
  5
3DC
330
3BE
100
AcDbEntity
  8
3D-EQPM
100
AcDbFaceRecord
 10
0.0
 20
0.0
 30
0.0
 70
   128
 71
    -6
 72
     4
 73
     5
  0
VERTEX
  5
3DD
330
3BE
100
AcDbEntity
  8
3D-EQPM
100
AcDbFaceRecord
 10
0.0
 20
0.0
 30
0.0
 70
   128
 71
     6
 72
    -7
 73
    -4
  0
VERTEX
  5
3DE
330
3BE
100
AcDbEntity
  8
3D-EQPM
100
AcDbFaceRecord
 10
0.0
 20
0.0
 30
0.0
 70
   128
 71
    -3
 72
     1
 73
     2
  0
VERTEX
  5
3DF
330
3BE
100
AcDbEntity
  8
3D-EQPM
100
AcDbFaceRecord
 10
0.0
 20
0.0
 30
0.0
 70
   128
 71
   -23
 72
     3
 73
    -4
 74
    22
  0
VERTEX
  5
3E0
330
3BE
100
AcDbEntity
  8
3D-EQPM
100
AcDbFaceRecord
 10
0.0
 20
0.0
 30
0.0
 70
   128
 71
   -23
 72
    -1
 73
    -3
  0
VERTEX
  5
3E1
330
3BE
100
AcDbEntity
  8
3D-EQPM
100
AcDbFaceRecord
 10
0.0
 20
0.0
 30
0.0
 70
   128
 71
   -17
 72
    -4
 73
   -12
  0
VERTEX
  5
3E2
330
3BE
100
AcDbEntity
  8
3D-EQPM
100
AcDbFaceRecord
 10
0.0
 20
0.0
 30
0.0
 70
   128
 71
   -17
 72
   -12
 73
   -14
  0
VERTEX
  5
3E3
330
3BE
100
AcDbEntity
  8
3D-EQPM
100
AcDbFaceRecord
 10
0.0
 20
0.0
 30
0.0
 70
   128
 71
   -16
 72
    14
 73
    15
  0
VERTEX
  5
3E4
330
3BE
100
AcDbEntity
  8
3D-EQPM
100
AcDbFaceRecord
 10
0.0
 20
0.0
 30
0.0
 70
   128
 71
   -17
 72
   -22
 73
    -4
  0
VERTEX
  5
3E5
330
3BE
100
AcDbEntity
  8
3D-EQPM
100
AcDbFaceRecord
 10
0.0
 20
0.0
 30
0.0
 70
   128
 71
   -17
 72
   -14
 73
    16
  0
VERTEX
  5
3E6
330
3BE
100
AcDbEntity
  8
3D-EQPM
100
AcDbFaceRecord
 10
0.0
 20
0.0
 30
0.0
 70
   128
 71
    18
 72
   -19
 73
    17
  0
VERTEX
  5
3E7
330
3BE
100
AcDbEntity
  8
3D-EQPM
100
AcDbFaceRecord
 10
0.0
 20
0.0
 30
0.0
 70
   128
 71
    24
 72
    -1
 73
    23
  0
VERTEX
  5
3E8
330
3BE
100
AcDbEntity
  8
3D-EQPM
100
AcDbFaceRecord
 10
0.0
 20
0.0
 30
0.0
 70
   128
 71
   -22
 72
    20
 73
    21
  0
VERTEX
  5
3E9
330
3BE
100
AcDbEntity
  8
3D-EQPM
100
AcDbFaceRecord
 10
0.0
 20
0.0
 30
0.0
 70
   128
 71
   -22
 72
   -17
 73
   -20
  0
VERTEX
  5
3EA
330
3BE
100
AcDbEntity
  8
3D-EQPM
100
AcDbFaceRecord
 10
0.0
 20
0.0
 30
0.0
 70
   128
 71
   -20
 72
   -17
 73
    19
  0
VERTEX
  5
3EB
330
3BE
100
AcDbEntity
  8
3D-EQPM
100
AcDbFaceRecord
 10
0.0
 20
0.0
 30
0.0
 70
   128
 71
   -14
 72
    12
 73
    13
  0
SEQEND
  5
3EC
330
3BE
100
AcDbEntity
  8
3D-EQPM
  0
POLYLINE
  5
3ED
330
A9
100
AcDbEntity
  8
3D-EQPM
100
AcDbPolyFaceMesh
 66
     1
 10
0.0
 20
0.0
 30
0.0
 70
    64
 71
    26
 72
    22
1001
REVIT
1002
{
1070
     4
1000
14409
1002
}
  0
VERTEX
  5
3EE
330
3ED
100
AcDbEntity
  8
3D-EQPM
100
AcDbVertex
100
AcDbPolyFaceMeshVertex
 10
0.0000000000000002
 20
0.1158158518373966
 30
0.0438908915966749
 70
   192
  0
VERTEX
  5
3EF
330
3ED
100
AcDbEntity
  8
3D-EQPM
100
AcDbVertex
100
AcDbPolyFaceMeshVertex
 10
0.0040440475568175
 20
0.1161287985742092
 30
0.0434601623564959
 70
   192
  0
VERTEX
  5
3F0
330
3ED
100
AcDbEntity
  8
3D-EQPM
100
AcDbVertex
100
AcDbPolyFaceMeshVertex
 10
0.0078125002328306
 20
0.1170462928712368
 30
0.0421973336488009
 70
   192
  0
VERTEX
  5
3F1
330
3ED
100
AcDbEntity
  8
3D-EQPM
100
AcDbVertex
100
AcDbPolyFaceMeshVertex
 10
0.0110485434997827
 20
0.1185058280825615
 30
0.0401884596794844
 70
   192
  0
VERTEX
  5
3F2
330
3ED
100
AcDbEntity
  8
3D-EQPM
100
AcDbVertex
100
AcDbPolyFaceMeshVertex
 10
0.0135316466912627
 20
0.1204079277813434
 30
0.0375704448670149
 70
   192
  0
VERTEX
  5
3F3
330
3ED
100
AcDbEntity
  8
3D-EQPM
100
AcDbVertex
100
AcDbPolyFaceMeshVertex
 10
0.0150925903581083
 20
0.1226229630410671
 30
0.0345217036083341
 70
   192
  0
VERTEX
  5
3F4
330
3ED
100
AcDbEntity
  8
3D-EQPM
100
AcDbVertex
100
AcDbPolyFaceMeshVertex
 10
0.0156250004656613
 20
0.1250000037252903
 30
0.0312500009313226
 70
   192
  0
VERTEX
  5
3F5
330
3ED
100
AcDbEntity
  8
3D-EQPM
100
AcDbVertex
100
AcDbPolyFaceMeshVertex
 10
0.0150925903581083
 20
0.1273770332336426
 30
0.0279782954603434
 70
   192
  0
VERTEX
  5
3F6
330
3ED
100
AcDbEntity
  8
3D-EQPM
100
AcDbVertex
100
AcDbPolyFaceMeshVertex
 10
0.0135316466912627
 20
0.1295920684933662
 30
0.0249295542016625
 70
   192
  0
VERTEX
  5
3F7
330
3ED
100
AcDbEntity
  8
3D-EQPM
100
AcDbVertex
100
AcDbPolyFaceMeshVertex
 10
0.0110485434997827
 20
0.1314941681921482
 30
0.0223115407861769
 70
   192
  0
VERTEX
  5
3F8
330
3ED
100
AcDbEntity
  8
3D-EQPM
100
AcDbVertex
100
AcDbPolyFaceMeshVertex
 10
0.0078125002328306
 20
0.1329537034034729
 30
0.0203026682138443
 70
   192
  0
VERTEX
  5
3F9
330
3ED
100
AcDbEntity
  8
3D-EQPM
100
AcDbVertex
100
AcDbPolyFaceMeshVertex
 10
0.0040440475568175
 20
0.1338711977005005
 30
0.0190398367121816
 70
   192
  0
VERTEX
  5
3FA
330
3ED
100
AcDbEntity
  8
3D-EQPM
100
AcDbVertex
100
AcDbPolyFaceMeshVertex
 10
0.0
 20
0.1341841444373131
 30
0.0186091088689864
 70
   192
  0
VERTEX
  5
3FB
330
3ED
100
AcDbEntity
  8
3D-EQPM
100
AcDbVertex
100
AcDbPolyFaceMeshVertex
 10
0.0
 20
2.00918412208557
 30
1.380876392126083
 70
   192
  0
VERTEX
  5
3FC
330
3ED
100
AcDbEntity
  8
3D-EQPM
100
AcDbVertex
100
AcDbPolyFaceMeshVertex
 10
0.0040440475568175
 20
2.0088711977005
 30
1.381307065486907
 70
   192
  0
VERTEX
  5
3FD
330
3ED
100
AcDbEntity
  8
3D-EQPM
100
AcDbVertex
100
AcDbPolyFaceMeshVertex
 10
0.0078125002328306
 20
2.007953703403472
 30
1.382569938898086
 70
   192
  0
VERTEX
  5
3FE
330
3ED
100
AcDbEntity
  8
3D-EQPM
100
AcDbVertex
100
AcDbPolyFaceMeshVertex
 10
0.0110485434997827
 20
2.006494224071502
 30
1.384578824043273
 70
   192
  0
VERTEX
  5
3FF
330
3ED
100
AcDbEntity
  8
3D-EQPM
100
AcDbVertex
100
AcDbPolyFaceMeshVertex
 10
0.0135316466912627
 20
2.00459200143814
 30
1.387196838855743
 70
   192
  0
VERTEX
  5
400
330
3ED
100
AcDbEntity
  8
3D-EQPM
100
AcDbVertex
100
AcDbPolyFaceMeshVertex
 10
0.0150925903581083
 20
2.002377033233642
 30
1.390245527029037
 70
   192
  0
VERTEX
  5
401
330
3ED
100
AcDbEntity
  8
3D-EQPM
100
AcDbVertex
100
AcDbPolyFaceMeshVertex
 10
0.0156250004656613
 20
2.000000059604644
 30
1.393517196178436
 70
   192
  0
VERTEX
  5
402
330
3ED
100
AcDbEntity
  8
3D-EQPM
100
AcDbVertex
100
AcDbPolyFaceMeshVertex
 10
0.0150925903581083
 20
1.997622907161712
 30
1.396788954734802
 70
   192
  0
VERTEX
  5
403
330
3ED
100
AcDbEntity
  8
3D-EQPM
100
AcDbVertex
100
AcDbPolyFaceMeshVertex
 10
0.0135316466912627
 20
1.995407938957214
 30
1.399837642908096
 70
   192
  0
VERTEX
  5
404
330
3ED
100
AcDbEntity
  8
3D-EQPM
100
AcDbVertex
100
AcDbPolyFaceMeshVertex
 10
0.0110485434997827
 20
1.993505895137786
 30
1.402455657720565
 70
   192
  0
VERTEX
  5
405
330
3ED
100
AcDbEntity
  8
3D-EQPM
100
AcDbVertex
100
AcDbPolyFaceMeshVertex
 10
0.0078125002328306
 20
1.992046236991882
 30
1.404464542865752
 70
   192
  0
VERTEX
  5
406
330
3ED
100
AcDbEntity
  8
3D-EQPM
100
AcDbVertex
100
AcDbPolyFaceMeshVertex
 10
0.0040440475568175
 20
1.991128742694854
 30
1.405727416276931
 70
   192
  0
VERTEX
  5
407
330
3ED
100
AcDbEntity
  8
3D-EQPM
100
AcDbVertex
100
AcDbPolyFaceMeshVertex
 10
0.0000000000000001
 20
1.990815818309783
 30
1.406158089637756
 70
   192
  0
VERTEX
  5
408
330
3ED
100
AcDbEntity
  8
3D-EQPM
100
AcDbFaceRecord
 10
0.0
 20
0.0
 30
0.0
 70
   128
 71
    15
 72
   -16
 73
   -12
  0
VERTEX
  5
409
330
3ED
100
AcDbEntity
  8
3D-EQPM
100
AcDbFaceRecord
 10
0.0
 20
0.0
 30
0.0
 70
   128
 71
    14
 72
   -15
 73
    13
  0
VERTEX
  5
40A
330
3ED
100
AcDbEntity
  8
3D-EQPM
100
AcDbFaceRecord
 10
0.0
 20
0.0
 30
0.0
 70
   128
 71
    18
 72
   -19
 73
    -9
  0
VERTEX
  5
40B
330
3ED
100
AcDbEntity
  8
3D-EQPM
100
AcDbFaceRecord
 10
0.0
 20
0.0
 30
0.0
 70
   128
 71
    17
 72
   -18
 73
   -10
  0
VERTEX
  5
40C
330
3ED
100
AcDbEntity
  8
3D-EQPM
100
AcDbFaceRecord
 10
0.0
 20
0.0
 30
0.0
 70
   128
 71
    16
 72
   -17
 73
   -11
  0
VERTEX
  5
40D
330
3ED
100
AcDbEntity
  8
3D-EQPM
100
AcDbFaceRecord
 10
0.0
 20
0.0
 30
0.0
 70
   128
 71
   -16
 72
    11
 73
   -12
  0
VERTEX
  5
40E
330
3ED
100
AcDbEntity
  8
3D-EQPM
100
AcDbFaceRecord
 10
0.0
 20
0.0
 30
0.0
 70
   128
 71
    12
 72
   -13
 73
   -15
  0
VERTEX
  5
40F
330
3ED
100
AcDbEntity
  8
3D-EQPM
100
AcDbFaceRecord
 10
0.0
 20
0.0
 30
0.0
 70
   128
 71
    -8
 72
   -20
 73
     7
  0
VERTEX
  5
410
330
3ED
100
AcDbEntity
  8
3D-EQPM
100
AcDbFaceRecord
 10
0.0
 20
0.0
 30
0.0
 70
   128
 71
     8
 72
    -9
 73
   -19
  0
VERTEX
  5
411
330
3ED
100
AcDbEntity
  8
3D-EQPM
100
AcDbFaceRecord
 10
0.0
 20
0.0
 30
0.0
 70
   128
 71
   -10
 72
   -18
 73
     9
  0
VERTEX
  5
412
330
3ED
100
AcDbEntity
  8
3D-EQPM
100
AcDbFaceRecord
 10
0.0
 20
0.0
 30
0.0
 70
   128
 71
    10
 72
   -11
 73
   -17
  0
VERTEX
  5
413
330
3ED
100
AcDbEntity
  8
3D-EQPM
100
AcDbFaceRecord
 10
0.0
 20
0.0
 30
0.0
 70
   128
 71
   -20
 72
    -8
 73
    19
  0
VERTEX
  5
414
330
3ED
100
AcDbEntity
  8
3D-EQPM
100
AcDbFaceRecord
 10
0.0
 20
0.0
 30
0.0
 70
   128
 71
    22
 72
   -23
 73
    -4
  0
VERTEX
  5
415
330
3ED
100
AcDbEntity
  8
3D-EQPM
100
AcDbFaceRecord
 10
0.0
 20
0.0
 30
0.0
 70
   128
 71
    21
 72
   -22
 73
     5
 74
    -6
  0
VERTEX
  5
416
330
3ED
100
AcDbEntity
  8
3D-EQPM
100
AcDbFaceRecord
 10
0.0
 20
0.0
 30
0.0
 70
   128
 71
    25
 72
    26
 73
     1
 74
    -2
  0
VERTEX
  5
417
330
3ED
100
AcDbEntity
  8
3D-EQPM
100
AcDbFaceRecord
 10
0.0
 20
0.0
 30
0.0
 70
   128
 71
    24
 72
   -25
 73
    -3
  0
VERTEX
  5
418
330
3ED
100
AcDbEntity
  8
3D-EQPM
100
AcDbFaceRecord
 10
0.0
 20
0.0
 30
0.0
 70
   128
 71
    23
 72
   -24
 73
    -4
  0
VERTEX
  5
419
330
3ED
100
AcDbEntity
  8
3D-EQPM
100
AcDbFaceRecord
 10
0.0
 20
0.0
 30
0.0
 70
   128
 71
     6
 72
    -7
 73
   -21
  0
VERTEX
  5
41A
330
3ED
100
AcDbEntity
  8
3D-EQPM
100
AcDbFaceRecord
 10
0.0
 20
0.0
 30
0.0
 70
   128
 71
    -4
 72
   -24
 73
     3
  0
VERTEX
  5
41B
330
3ED
100
AcDbEntity
  8
3D-EQPM
100
AcDbFaceRecord
 10
0.0
 20
0.0
 30
0.0
 70
   128
 71
    -3
 72
   -25
 73
     2
  0
VERTEX
  5
41C
330
3ED
100
AcDbEntity
  8
3D-EQPM
100
AcDbFaceRecord
 10
0.0
 20
0.0
 30
0.0
 70
   128
 71
     4
 72
    -5
 73
   -22
  0
VERTEX
  5
41D
330
3ED
100
AcDbEntity
  8
3D-EQPM
100
AcDbFaceRecord
 10
0.0
 20
0.0
 30
0.0
 70
   128
 71
   -21
 72
    -7
 73
    20
  0
SEQEND
  5
41E
330
3ED
100
AcDbEntity
  8
3D-EQPM
  0
POLYLINE
  5
41F
330
A9
100
AcDbEntity
  8
3D-EQPM
100
AcDbPolyFaceMesh
 66
     1
 10
0.0
 20
0.0
 30
0.0
 70
    64
 71
    26
 72
    21
1001
REVIT
1002
{
1070
     4
1000
14409
1002
}
  0
VERTEX
  5
420
330
41F
100
AcDbEntity
  8
3D-EQPM
100
AcDbVertex
100
AcDbPolyFaceMeshVertex
 10
0.0
 20
0.1341841444373131
 30
0.0186091088689864
 70
   192
  0
VERTEX
  5
421
330
41F
100
AcDbEntity
  8
3D-EQPM
100
AcDbVertex
100
AcDbPolyFaceMeshVertex
 10
-0.0040440475568175
 20
0.1338711977005005
 30
0.0190398367121816
 70
   192
  0
VERTEX
  5
422
330
41F
100
AcDbEntity
  8
3D-EQPM
100
AcDbVertex
100
AcDbPolyFaceMeshVertex
 10
-0.0078125002328306
 20
0.1329537034034729
 30
0.0203026682138443
 70
   192
  0
VERTEX
  5
423
330
41F
100
AcDbEntity
  8
3D-EQPM
100
AcDbVertex
100
AcDbPolyFaceMeshVertex
 10
-0.0110485434997827
 20
0.1314941681921482
 30
0.0223115407861769
 70
   192
  0
VERTEX
  5
424
330
41F
100
AcDbEntity
  8
3D-EQPM
100
AcDbVertex
100
AcDbPolyFaceMeshVertex
 10
-0.0135316466912627
 20
0.1295920684933662
 30
0.0249295542016625
 70
   192
  0
VERTEX
  5
425
330
41F
100
AcDbEntity
  8
3D-EQPM
100
AcDbVertex
100
AcDbPolyFaceMeshVertex
 10
-0.0150925903581083
 20
0.1273770332336426
 30
0.0279782954603434
 70
   192
  0
VERTEX
  5
426
330
41F
100
AcDbEntity
  8
3D-EQPM
100
AcDbVertex
100
AcDbPolyFaceMeshVertex
 10
-0.0156250004656613
 20
0.1250000037252903
 30
0.0312500009313226
 70
   192
  0
VERTEX
  5
427
330
41F
100
AcDbEntity
  8
3D-EQPM
100
AcDbVertex
100
AcDbPolyFaceMeshVertex
 10
-0.0150925903581083
 20
0.1226229630410671
 30
0.0345217036083341
 70
   192
  0
VERTEX
  5
428
330
41F
100
AcDbEntity
  8
3D-EQPM
100
AcDbVertex
100
AcDbPolyFaceMeshVertex
 10
-0.0135316466912627
 20
0.1204079277813434
 30
0.0375704448670149
 70
   192
  0
VERTEX
  5
429
330
41F
100
AcDbEntity
  8
3D-EQPM
100
AcDbVertex
100
AcDbPolyFaceMeshVertex
 10
-0.0110485434997827
 20
0.1185058280825615
 30
0.0401884596794844
 70
   192
  0
VERTEX
  5
42A
330
41F
100
AcDbEntity
  8
3D-EQPM
100
AcDbVertex
100
AcDbPolyFaceMeshVertex
 10
-0.0078125002328306
 20
0.1170462928712368
 30
0.0421973336488009
 70
   192
  0
VERTEX
  5
42B
330
41F
100
AcDbEntity
  8
3D-EQPM
100
AcDbVertex
100
AcDbPolyFaceMeshVertex
 10
-0.0040440475568175
 20
0.1161287985742092
 30
0.0434601623564959
 70
   192
  0
VERTEX
  5
42C
330
41F
100
AcDbEntity
  8
3D-EQPM
100
AcDbVertex
100
AcDbPolyFaceMeshVertex
 10
0.0
 20
0.1158158518373966
 30
0.0438908915966749
 70
   192
  0
VERTEX
  5
42D
330
41F
100
AcDbEntity
  8
3D-EQPM
100
AcDbVertex
100
AcDbPolyFaceMeshVertex
 10
0.0
 20
1.990815818309783
 30
1.406158089637756
 70
   192
  0
VERTEX
  5
42E
330
41F
100
AcDbEntity
  8
3D-EQPM
100
AcDbVertex
100
AcDbPolyFaceMeshVertex
 10
-0.0040440475568175
 20
1.991128742694854
 30
1.405727416276931
 70
   192
  0
VERTEX
  5
42F
330
41F
100
AcDbEntity
  8
3D-EQPM
100
AcDbVertex
100
AcDbPolyFaceMeshVertex
 10
-0.0078125002328306
 20
1.992046236991882
 30
1.404464542865752
 70
   192
  0
VERTEX
  5
430
330
41F
100
AcDbEntity
  8
3D-EQPM
100
AcDbVertex
100
AcDbPolyFaceMeshVertex
 10
-0.0110485434997827
 20
1.993505895137786
 30
1.402455657720565
 70
   192
  0
VERTEX
  5
431
330
41F
100
AcDbEntity
  8
3D-EQPM
100
AcDbVertex
100
AcDbPolyFaceMeshVertex
 10
-0.0135316466912627
 20
1.995407938957214
 30
1.399837642908096
 70
   192
  0
VERTEX
  5
432
330
41F
100
AcDbEntity
  8
3D-EQPM
100
AcDbVertex
100
AcDbPolyFaceMeshVertex
 10
-0.0150925903581083
 20
1.997622907161712
 30
1.396788954734802
 70
   192
  0
VERTEX
  5
433
330
41F
100
AcDbEntity
  8
3D-EQPM
100
AcDbVertex
100
AcDbPolyFaceMeshVertex
 10
-0.0156250004656613
 20
2.000000059604644
 30
1.393517196178436
 70
   192
  0
VERTEX
  5
434
330
41F
100
AcDbEntity
  8
3D-EQPM
100
AcDbVertex
100
AcDbPolyFaceMeshVertex
 10
-0.0150925903581083
 20
2.002377033233642
 30
1.390245527029037
 70
   192
  0
VERTEX
  5
435
330
41F
100
AcDbEntity
  8
3D-EQPM
100
AcDbVertex
100
AcDbPolyFaceMeshVertex
 10
-0.0135316466912627
 20
2.00459200143814
 30
1.387196838855743
 70
   192
  0
VERTEX
  5
436
330
41F
100
AcDbEntity
  8
3D-EQPM
100
AcDbVertex
100
AcDbPolyFaceMeshVertex
 10
-0.0110485434997827
 20
2.006494224071502
 30
1.384578824043273
 70
   192
  0
VERTEX
  5
437
330
41F
100
AcDbEntity
  8
3D-EQPM
100
AcDbVertex
100
AcDbPolyFaceMeshVertex
 10
-0.0078125002328306
 20
2.007953703403472
 30
1.382569938898086
 70
   192
  0
VERTEX
  5
438
330
41F
100
AcDbEntity
  8
3D-EQPM
100
AcDbVertex
100
AcDbPolyFaceMeshVertex
 10
-0.0040440475568175
 20
2.0088711977005
 30
1.381307065486907
 70
   192
  0
VERTEX
  5
439
330
41F
100
AcDbEntity
  8
3D-EQPM
100
AcDbVertex
100
AcDbPolyFaceMeshVertex
 10
0.0
 20
2.00918412208557
 30
1.380876392126083
 70
   192
  0
VERTEX
  5
43A
330
41F
100
AcDbEntity
  8
3D-EQPM
100
AcDbFaceRecord
 10
0.0
 20
0.0
 30
0.0
 70
   128
 71
   -12
 72
    15
 73
   -16
 74
    11
  0
VERTEX
  5
43B
330
41F
100
AcDbEntity
  8
3D-EQPM
100
AcDbFaceRecord
 10
0.0
 20
0.0
 30
0.0
 70
   128
 71
    14
 72
   -15
 73
    13
  0
VERTEX
  5
43C
330
41F
100
AcDbEntity
  8
3D-EQPM
100
AcDbFaceRecord
 10
0.0
 20
0.0
 30
0.0
 70
   128
 71
    18
 72
   -19
 73
    -9
  0
VERTEX
  5
43D
330
41F
100
AcDbEntity
  8
3D-EQPM
100
AcDbFaceRecord
 10
0.0
 20
0.0
 30
0.0
 70
   128
 71
    17
 72
   -18
 73
   -10
  0
VERTEX
  5
43E
330
41F
100
AcDbEntity
  8
3D-EQPM
100
AcDbFaceRecord
 10
0.0
 20
0.0
 30
0.0
 70
   128
 71
    16
 72
   -17
 73
   -11
  0
VERTEX
  5
43F
330
41F
100
AcDbEntity
  8
3D-EQPM
100
AcDbFaceRecord
 10
0.0
 20
0.0
 30
0.0
 70
   128
 71
    12
 72
   -13
 73
   -15
  0
VERTEX
  5
440
330
41F
100
AcDbEntity
  8
3D-EQPM
100
AcDbFaceRecord
 10
0.0
 20
0.0
 30
0.0
 70
   128
 71
    19
 72
   -20
 73
     7
 74
    -8
  0
VERTEX
  5
441
330
41F
100
AcDbEntity
  8
3D-EQPM
100
AcDbFaceRecord
 10
0.0
 20
0.0
 30
0.0
 70
   128
 71
     8
 72
    -9
 73
   -19
  0
VERTEX
  5
442
330
41F
100
AcDbEntity
  8
3D-EQPM
100
AcDbFaceRecord
 10
0.0
 20
0.0
 30
0.0
 70
   128
 71
   -10
 72
   -18
 73
     9
  0
VERTEX
  5
443
330
41F
100
AcDbEntity
  8
3D-EQPM
100
AcDbFaceRecord
 10
0.0
 20
0.0
 30
0.0
 70
   128
 71
    10
 72
   -11
 73
   -17
  0
VERTEX
  5
444
330
41F
100
AcDbEntity
  8
3D-EQPM
100
AcDbFaceRecord
 10
0.0
 20
0.0
 30
0.0
 70
   128
 71
    -5
 72
    22
 73
   -23
 74
     4
  0
VERTEX
  5
445
330
41F
100
AcDbEntity
  8
3D-EQPM
100
AcDbFaceRecord
 10
0.0
 20
0.0
 30
0.0
 70
   128
 71
    21
 72
   -22
 73
    -6
  0
VERTEX
  5
446
330
41F
100
AcDbEntity
  8
3D-EQPM
100
AcDbFaceRecord
 10
0.0
 20
0.0
 30
0.0
 70
   128
 71
    25
 72
    26
 73
    -1
  0
VERTEX
  5
447
330
41F
100
AcDbEntity
  8
3D-EQPM
100
AcDbFaceRecord
 10
0.0
 20
0.0
 30
0.0
 70
   128
 71
    24
 72
   -25
 73
    -2
  0
VERTEX
  5
448
330
41F
100
AcDbEntity
  8
3D-EQPM
100
AcDbFaceRecord
 10
0.0
 20
0.0
 30
0.0
 70
   128
 71
    23
 72
   -24
 73
    -3
  0
VERTEX
  5
449
330
41F
100
AcDbEntity
  8
3D-EQPM
100
AcDbFaceRecord
 10
0.0
 20
0.0
 30
0.0
 70
   128
 71
    -7
 72
   -20
 73
     6
  0
VERTEX
  5
44A
330
41F
100
AcDbEntity
  8
3D-EQPM
100
AcDbFaceRecord
 10
0.0
 20
0.0
 30
0.0
 70
   128
 71
    -6
 72
   -22
 73
     5
  0
VERTEX
  5
44B
330
41F
100
AcDbEntity
  8
3D-EQPM
100
AcDbFaceRecord
 10
0.0
 20
0.0
 30
0.0
 70
   128
 71
   -23
 72
     3
 73
    -4
  0
VERTEX
  5
44C
330
41F
100
AcDbEntity
  8
3D-EQPM
100
AcDbFaceRecord
 10
0.0
 20
0.0
 30
0.0
 70
   128
 71
     2
 72
    -3
 73
   -24
  0
VERTEX
  5
44D
330
41F
100
AcDbEntity
  8
3D-EQPM
100
AcDbFaceRecord
 10
0.0
 20
0.0
 30
0.0
 70
   128
 71
   -25
 72
     1
 73
    -2
  0
VERTEX
  5
44E
330
41F
100
AcDbEntity
  8
3D-EQPM
100
AcDbFaceRecord
 10
0.0
 20
0.0
 30
0.0
 70
   128
 71
    -6
 72
    20
 73
   -21
  0
SEQEND
  5
44F
330
41F
100
AcDbEntity
  8
3D-EQPM
  0
LINE
  5
450
330
A9
100
AcDbEntity
  8
3D-EQPM
100
AcDbLine
 10
0.1992187499999993
 20
0.125000000000002
 30
0.0312500000000013
 11
0.1992187499999993
 21
1.683601016665449
 31
0.5376701688832367
  0
ENDBLK
  5
452
330
A9
100
AcDbEntity
  8
0
100
AcDbBlockEnd
  0
ENDSEC
  0
SECTION
  2
ENTITIES
  0
INSERT
  5
7A
330
6C
100
AcDbEntity
  8
0
100
AcDbBlockReference
  2
FamilyGeomCombination_2974-_3D_
 10
0.0
 20
0.0
 30
0.0
  0
INSERT
  5
7E
330
6C
100
AcDbEntity
  8
0
100
AcDbBlockReference
  2
FamilyGeomCombination_3037-_3D_
 10
0.0
 20
0.0
 30
0.0
  0
POLYLINE
  5
7F
330
6C
100
AcDbEntity
  8
3D-EQPM
100
AcDbPolyFaceMesh
 66
     1
 10
0.0
 20
0.0
 30
0.0
 70
    64
 71
     4
 72
     1
1001
REVIT
1002
{
1070
     1
1000
9174
1002
}
1002
{
1070
     4
1000
14409
1002
}
1002
{
1070
     2
1000
-2001350
1002
}
  0
VERTEX
  5
80
330
7F
100
AcDbEntity
  8
3D-EQPM
100
AcDbVertex
100
AcDbPolyFaceMeshVertex
 10
920.5025939941405
 20
430.1717834472655
 30
-0.0000000000032599
 70
   192
  0
VERTEX
  5
81
330
7F
100
AcDbEntity
  8
3D-EQPM
100
AcDbVertex
100
AcDbPolyFaceMeshVertex
 10
920.5025939941405
 20
430.4217681884765
 30
-0.0000000000032599
 70
   192
  0
VERTEX
  5
82
330
7F
100
AcDbEntity
  8
3D-EQPM
100
AcDbVertex
100
AcDbPolyFaceMeshVertex
 10
920.5025939941405
 20
430.4217681884765
 30
0.0312500009313226
 70
   192
  0
VERTEX
  5
83
330
7F
100
AcDbEntity
  8
3D-EQPM
100
AcDbVertex
100
AcDbPolyFaceMeshVertex
 10
920.5025939941405
 20
430.1717834472655
 30
0.0312500009313226
 70
   192
  0
VERTEX
  5
84
330
7F
100
AcDbEntity
  8
3D-EQPM
100
AcDbFaceRecord
 10
0.0
 20
0.0
 30
0.0
 70
   128
 71
     3
 72
     4
 73
     1
 74
     2
  0
SEQEND
  5
85
330
7F
100
AcDbEntity
  8
3D-EQPM
  0
POLYLINE
  5
86
330
6C
100
AcDbEntity
  8
3D-EQPM
100
AcDbPolyFaceMesh
 66
     1
 10
0.0
 20
0.0
 30
0.0
 70
    64
 71
     4
 72
     1
1001
REVIT
1002
{
1070
     1
1000
9174
1002
}
1002
{
1070
     4
1000
14409
1002
}
1002
{
1070
     2
1000
-2001350
1002
}
  0
VERTEX
  5
87
330
86
100
AcDbEntity
  8
3D-EQPM
100
AcDbVertex
100
AcDbPolyFaceMeshVertex
 10
896.5025939941405
 20
430.1717834472655
 30
-0.0000000000032599
 70
   192
  0
VERTEX
  5
88
330
86
100
AcDbEntity
  8
3D-EQPM
100
AcDbVertex
100
AcDbPolyFaceMeshVertex
 10
896.5025939941405
 20
430.1717834472655
 30
0.0312500009313226
 70
   192
  0
VERTEX
  5
89
330
86
100
AcDbEntity
  8
3D-EQPM
100
AcDbVertex
100
AcDbPolyFaceMeshVertex
 10
896.5025939941405
 20
430.4217681884765
 30
0.0312500009313226
 70
   192
  0
VERTEX
  5
8A
330
86
100
AcDbEntity
  8
3D-EQPM
100
AcDbVertex
100
AcDbPolyFaceMeshVertex
 10
896.5025939941405
 20
430.4217681884765
 30
-0.0000000000032599
 70
   192
  0
VERTEX
  5
8B
330
86
100
AcDbEntity
  8
3D-EQPM
100
AcDbFaceRecord
 10
0.0
 20
0.0
 30
0.0
 70
   128
 71
     2
 72
     3
 73
     4
 74
     1
  0
SEQEND
  5
8C
330
86
100
AcDbEntity
  8
3D-EQPM
  0
POLYLINE
  5
8D
330
6C
100
AcDbEntity
  8
3D-EQPM
100
AcDbPolyFaceMesh
 66
     1
 10
0.0
 20
0.0
 30
0.0
 70
    64
 71
     4
 72
     1
1001
REVIT
1002
{
1070
     1
1000
9174
1002
}
1002
{
1070
     4
1000
14409
1002
}
1002
{
1070
     2
1000
-2001350
1002
}
  0
VERTEX
  5
8E
330
8D
100
AcDbEntity
  8
3D-EQPM
100
AcDbVertex
100
AcDbPolyFaceMeshVertex
 10
920.5025939941405
 20
430.4217681884765
 30
-0.0000000000032599
 70
   192
  0
VERTEX
  5
8F
330
8D
100
AcDbEntity
  8
3D-EQPM
100
AcDbVertex
100
AcDbPolyFaceMeshVertex
 10
920.5025939941405
 20
430.1717834472655
 30
-0.0000000000032599
 70
   192
  0
VERTEX
  5
90
330
8D
100
AcDbEntity
  8
3D-EQPM
100
AcDbVertex
100
AcDbPolyFaceMeshVertex
 10
896.5025939941405
 20
430.1717834472655
 30
-0.0000000000032599
 70
   192
  0
VERTEX
  5
91
330
8D
100
AcDbEntity
  8
3D-EQPM
100
AcDbVertex
100
AcDbPolyFaceMeshVertex
 10
896.5025939941405
 20
430.4217681884765
 30
-0.0000000000032599
 70
   192
  0
VERTEX
  5
92
330
8D
100
AcDbEntity
  8
3D-EQPM
100
AcDbFaceRecord
 10
0.0
 20
0.0
 30
0.0
 70
   128
 71
     4
 72
     1
 73
     2
 74
     3
  0
SEQEND
  5
93
330
8D
100
AcDbEntity
  8
3D-EQPM
  0
POLYLINE
  5
94
330
6C
100
AcDbEntity
  8
3D-EQPM
100
AcDbPolyFaceMesh
 66
     1
 10
0.0
 20
0.0
 30
0.0
 70
    64
 71
     4
 72
     1
1001
REVIT
1002
{
1070
     1
1000
9174
1002
}
1002
{
1070
     4
1000
14409
1002
}
1002
{
1070
     2
1000
-2001350
1002
}
  0
VERTEX
  5
95
330
94
100
AcDbEntity
  8
3D-EQPM
100
AcDbVertex
100
AcDbPolyFaceMeshVertex
 10
920.5025939941405
 20
430.4217681884765
 30
0.0312500009313226
 70
   192
  0
VERTEX
  5
96
330
94
100
AcDbEntity
  8
3D-EQPM
100
AcDbVertex
100
AcDbPolyFaceMeshVertex
 10
920.5025939941405
 20
430.4217681884765
 30
-0.0000000000032599
 70
   192
  0
VERTEX
  5
97
330
94
100
AcDbEntity
  8
3D-EQPM
100
AcDbVertex
100
AcDbPolyFaceMeshVertex
 10
896.5025939941405
 20
430.4217681884765
 30
-0.0000000000032599
 70
   192
  0
VERTEX
  5
98
330
94
100
AcDbEntity
  8
3D-EQPM
100
AcDbVertex
100
AcDbPolyFaceMeshVertex
 10
896.5025939941405
 20
430.4217681884765
 30
0.0312500009313226
 70
   192
  0
VERTEX
  5
99
330
94
100
AcDbEntity
  8
3D-EQPM
100
AcDbFaceRecord
 10
0.0
 20
0.0
 30
0.0
 70
   128
 71
     4
 72
     1
 73
     2
 74
     3
  0
SEQEND
  5
9A
330
94
100
AcDbEntity
  8
3D-EQPM
  0
POLYLINE
  5
9B
330
6C
100
AcDbEntity
  8
3D-EQPM
100
AcDbPolyFaceMesh
 66
     1
 10
0.0
 20
0.0
 30
0.0
 70
    64
 71
     4
 72
     1
1001
REVIT
1002
{
1070
     1
1000
9174
1002
}
1002
{
1070
     4
1000
14409
1002
}
1002
{
1070
     2
1000
-2001350
1002
}
  0
VERTEX
  5
9C
330
9B
100
AcDbEntity
  8
3D-EQPM
100
AcDbVertex
100
AcDbPolyFaceMeshVertex
 10
920.5025939941405
 20
430.1717834472655
 30
0.0312500009313226
 70
   192
  0
VERTEX
  5
9D
330
9B
100
AcDbEntity
  8
3D-EQPM
100
AcDbVertex
100
AcDbPolyFaceMeshVertex
 10
920.5025939941405
 20
430.4217681884765
 30
0.0312500009313226
 70
   192
  0
VERTEX
  5
9E
330
9B
100
AcDbEntity
  8
3D-EQPM
100
AcDbVertex
100
AcDbPolyFaceMeshVertex
 10
896.5025939941405
 20
430.4217681884765
 30
0.0312500009313226
 70
   192
  0
VERTEX
  5
9F
330
9B
100
AcDbEntity
  8
3D-EQPM
100
AcDbVertex
100
AcDbPolyFaceMeshVertex
 10
896.5025939941405
 20
430.1717834472655
 30
0.0312500009313226
 70
   192
  0
VERTEX
  5
A0
330
9B
100
AcDbEntity
  8
3D-EQPM
100
AcDbFaceRecord
 10
0.0
 20
0.0
 30
0.0
 70
   128
 71
     4
 72
     1
 73
     2
 74
     3
  0
SEQEND
  5
A1
330
9B
100
AcDbEntity
  8
3D-EQPM
  0
POLYLINE
  5
A2
330
6C
100
AcDbEntity
  8
3D-EQPM
100
AcDbPolyFaceMesh
 66
     1
 10
0.0
 20
0.0
 30
0.0
 70
    64
 71
     4
 72
     1
1001
REVIT
1002
{
1070
     1
1000
9174
1002
}
1002
{
1070
     4
1000
14409
1002
}
1002
{
1070
     2
1000
-2001350
1002
}
  0
VERTEX
  5
A3
330
A2
100
AcDbEntity
  8
3D-EQPM
100
AcDbVertex
100
AcDbPolyFaceMeshVertex
 10
920.5025939941405
 20
430.1717834472655
 30
-0.0000000000032599
 70
   192
  0
VERTEX
  5
A4
330
A2
100
AcDbEntity
  8
3D-EQPM
100
AcDbVertex
100
AcDbPolyFaceMeshVertex
 10
920.5025939941405
 20
430.1717834472655
 30
0.0312500009313226
 70
   192
  0
VERTEX
  5
A5
330
A2
100
AcDbEntity
  8
3D-EQPM
100
AcDbVertex
100
AcDbPolyFaceMeshVertex
 10
896.5025939941405
 20
430.1717834472655
 30
0.0312500009313226
 70
   192
  0
VERTEX
  5
A6
330
A2
100
AcDbEntity
  8
3D-EQPM
100
AcDbVertex
100
AcDbPolyFaceMeshVertex
 10
896.5025939941405
 20
430.1717834472655
 30
-0.0000000000032599
 70
   192
  0
VERTEX
  5
A7
330
A2
100
AcDbEntity
  8
3D-EQPM
100
AcDbFaceRecord
 10
0.0
 20
0.0
 30
0.0
 70
   128
 71
     4
 72
     1
 73
     2
 74
     3
  0
SEQEND
  5
A8
330
A2
100
AcDbEntity
  8
3D-EQPM
  0
INSERT
  5
453
330
6C
100
AcDbEntity
  8
3D-EQPM
100
AcDbBlockReference
  2
Model H - Model H_1-61731-_3D_
 10
896.6021978852841
 20
430.2967845429632
 30
0.0
1001
REVIT
1002
{
1070
     1
1000
10413
1002
}
1002
{
1070
     5
1000
18709
1002
}
1002
{
1070
     2
1000
-2001350
1002
}
  0
INSERT
  5
454
330
6C
100
AcDbEntity
  8
3D-EQPM
100
AcDbBlockReference
  2
Model H - Model H_1-61731-_3D_
 10
919.6061041352843
 20
430.2967845429632
 30
0.0
1001
REVIT
1002
{
1070
     1
1000
14149
1002
}
1002
{
1070
     5
1000
18709
1002
}
1002
{
1070
     2
1000
-2001350
1002
}
  0
INSERT
  5
455
330
6C
100
AcDbEntity
  8
3D-EQPM
100
AcDbBlockReference
  2
Model H - Model H_1-61731-_3D_
 10
897.6023677222409
 20
430.2967845429632
 30
0.0
1001
REVIT
1002
{
1070
     1
1000
14198
1002
}
1002
{
1070
     5
1000
18709
1002
}
1002
{
1070
     2
1000
-2001350
1002
}
  0
INSERT
  5
456
330
6C
100
AcDbEntity
  8
3D-EQPM
100
AcDbBlockReference
  2
Model H - Model H_1-61731-_3D_
 10
898.6025375591973
 20
430.2967845429632
 30
0.0
1001
REVIT
1002
{
1070
     1
1000
35758
1002
}
1002
{
1070
     5
1000
18709
1002
}
1002
{
1070
     2
1000
-2001350
1002
}
  0
INSERT
  5
457
330
6C
100
AcDbEntity
  8
3D-EQPM
100
AcDbBlockReference
  2
Model H - Model H_1-61731-_3D_
 10
899.6027073961537
 20
430.2967845429632
 30
0.0
1001
REVIT
1002
{
1070
     1
1000
35760
1002
}
1002
{
1070
     5
1000
18709
1002
}
1002
{
1070
     2
1000
-2001350
1002
}
  0
INSERT
  5
458
330
6C
100
AcDbEntity
  8
3D-EQPM
100
AcDbBlockReference
  2
Model H - Model H_1-61731-_3D_
 10
900.6028772331104
 20
430.2967845429632
 30
0.0
1001
REVIT
1002
{
1070
     1
1000
35762
1002
}
1002
{
1070
     5
1000
18709
1002
}
1002
{
1070
     2
1000
-2001350
1002
}
  0
INSERT
  5
459
330
6C
100
AcDbEntity
  8
3D-EQPM
100
AcDbBlockReference
  2
Model H - Model H_1-61731-_3D_
 10
901.6030470700668
 20
430.2967845429632
 30
0.0
1001
REVIT
1002
{
1070
     1
1000
35764
1002
}
1002
{
1070
     5
1000
18709
1002
}
1002
{
1070
     2
1000
-2001350
1002
}
  0
INSERT
  5
45A
330
6C
100
AcDbEntity
  8
3D-EQPM
100
AcDbBlockReference
  2
Model H - Model H_1-61731-_3D_
 10
902.6032169070234
 20
430.2967845429632
 30
0.0
1001
REVIT
1002
{
1070
     1
1000
35766
1002
}
1002
{
1070
     5
1000
18709
1002
}
1002
{
1070
     2
1000
-2001350
1002
}
  0
INSERT
  5
45B
330
6C
100
AcDbEntity
  8
3D-EQPM
100
AcDbBlockReference
  2
Model H - Model H_1-61731-_3D_
 10
903.6033867439797
 20
430.2967845429632
 30
0.0
1001
REVIT
1002
{
1070
     1
1000
35768
1002
}
1002
{
1070
     5
1000
18709
1002
}
1002
{
1070
     2
1000
-2001350
1002
}
  0
INSERT
  5
45C
330
6C
100
AcDbEntity
  8
3D-EQPM
100
AcDbBlockReference
  2
Model H - Model H_1-61731-_3D_
 10
904.6035565809363
 20
430.2967845429632
 30
0.0
1001
REVIT
1002
{
1070
     1
1000
35770
1002
}
1002
{
1070
     5
1000
18709
1002
}
1002
{
1070
     2
1000
-2001350
1002
}
  0
INSERT
  5
45D
330
6C
100
AcDbEntity
  8
3D-EQPM
100
AcDbBlockReference
  2
Model H - Model H_1-61731-_3D_
 10
905.6037264178929
 20
430.2967845429632
 30
0.0
1001
REVIT
1002
{
1070
     1
1000
35772
1002
}
1002
{
1070
     5
1000
18709
1002
}
1002
{
1070
     2
1000
-2001350
1002
}
  0
INSERT
  5
45E
330
6C
100
AcDbEntity
  8
3D-EQPM
100
AcDbBlockReference
  2
Model H - Model H_1-61731-_3D_
 10
906.6038962548494
 20
430.2967845429632
 30
0.0
1001
REVIT
1002
{
1070
     1
1000
35774
1002
}
1002
{
1070
     5
1000
18709
1002
}
1002
{
1070
     2
1000
-2001350
1002
}
  0
INSERT
  5
45F
330
6C
100
AcDbEntity
  8
3D-EQPM
100
AcDbBlockReference
  2
Model H - Model H_1-61731-_3D_
 10
907.604066091806
 20
430.2967845429632
 30
0.0
1001
REVIT
1002
{
1070
     1
1000
61216
1002
}
1002
{
1070
     5
1000
18709
1002
}
1002
{
1070
     2
1000
-2001350
1002
}
  0
INSERT
  5
460
330
6C
100
AcDbEntity
  8
3D-EQPM
100
AcDbBlockReference
  2
Model H - Model H_1-61731-_3D_
 10
908.6042359287624
 20
430.2967845429632
 30
0.0
1001
REVIT
1002
{
1070
     1
1000
61218
1002
}
1002
{
1070
     5
1000
18709
1002
}
1002
{
1070
     2
1000
-2001350
1002
}
  0
INSERT
  5
461
330
6C
100
AcDbEntity
  8
3D-EQPM
100
AcDbBlockReference
  2
Model H - Model H_1-61731-_3D_
 10
909.604405765719
 20
430.2967845429632
 30
0.0
1001
REVIT
1002
{
1070
     1
1000
61220
1002
}
1002
{
1070
     5
1000
18709
1002
}
1002
{
1070
     2
1000
-2001350
1002
}
  0
INSERT
  5
462
330
6C
100
AcDbEntity
  8
3D-EQPM
100
AcDbBlockReference
  2
Model H - Model H_1-61731-_3D_
 10
910.6045756026755
 20
430.2967845429632
 30
0.0
1001
REVIT
1002
{
1070
     1
1000
61222
1002
}
1002
{
1070
     5
1000
18709
1002
}
1002
{
1070
     2
1000
-2001350
1002
}
  0
INSERT
  5
463
330
6C
100
AcDbEntity
  8
3D-EQPM
100
AcDbBlockReference
  2
Model H - Model H_1-61731-_3D_
 10
911.6047454396321
 20
430.2967845429632
 30
0.0
1001
REVIT
1002
{
1070
     1
1000
61224
1002
}
1002
{
1070
     5
1000
18709
1002
}
1002
{
1070
     2
1000
-2001350
1002
}
  0
INSERT
  5
464
330
6C
100
AcDbEntity
  8
3D-EQPM
100
AcDbBlockReference
  2
Model H - Model H_1-61731-_3D_
 10
912.6049152765887
 20
430.2967845429632
 30
0.0
1001
REVIT
1002
{
1070
     1
1000
61226
1002
}
1002
{
1070
     5
1000
18709
1002
}
1002
{
1070
     2
1000
-2001350
1002
}
  0
INSERT
  5
465
330
6C
100
AcDbEntity
  8
3D-EQPM
100
AcDbBlockReference
  2
Model H - Model H_1-61731-_3D_
 10
913.6050851135451
 20
430.2967845429632
 30
0.0
1001
REVIT
1002
{
1070
     1
1000
61228
1002
}
1002
{
1070
     5
1000
18709
1002
}
1002
{
1070
     2
1000
-2001350
1002
}
  0
INSERT
  5
466
330
6C
100
AcDbEntity
  8
3D-EQPM
100
AcDbBlockReference
  2
Model H - Model H_1-61731-_3D_
 10
914.6052549505016
 20
430.2967845429632
 30
0.0
1001
REVIT
1002
{
1070
     1
1000
61230
1002
}
1002
{
1070
     5
1000
18709
1002
}
1002
{
1070
     2
1000
-2001350
1002
}
  0
INSERT
  5
467
330
6C
100
AcDbEntity
  8
3D-EQPM
100
AcDbBlockReference
  2
Model H - Model H_1-61731-_3D_
 10
915.6054247874582
 20
430.2967845429632
 30
0.0
1001
REVIT
1002
{
1070
     1
1000
61232
1002
}
1002
{
1070
     5
1000
18709
1002
}
1002
{
1070
     2
1000
-2001350
1002
}
  0
INSERT
  5
468
330
6C
100
AcDbEntity
  8
3D-EQPM
100
AcDbBlockReference
  2
Model H - Model H_1-61731-_3D_
 10
916.6055946244147
 20
430.2967845429632
 30
0.0
1001
REVIT
1002
{
1070
     1
1000
61234
1002
}
1002
{
1070
     5
1000
18709
1002
}
1002
{
1070
     2
1000
-2001350
1002
}
  0
INSERT
  5
469
330
6C
100
AcDbEntity
  8
3D-EQPM
100
AcDbBlockReference
  2
Model H - Model H_1-61731-_3D_
 10
917.6057644613711
 20
430.2967845429632
 30
0.0
1001
REVIT
1002
{
1070
     1
1000
61236
1002
}
1002
{
1070
     5
1000
18709
1002
}
1002
{
1070
     2
1000
-2001350
1002
}
  0
INSERT
  5
46A
330
6C
100
AcDbEntity
  8
3D-EQPM
100
AcDbBlockReference
  2
Model H - Model H_1-61731-_3D_
 10
918.6059342983277
 20
430.2967845429632
 30
0.0
1001
REVIT
1002
{
1070
     1
1000
61238
1002
}
1002
{
1070
     5
1000
18709
1002
}
1002
{
1070
     2
1000
-2001350
1002
}
  0
ENDSEC
  0
SECTION
  2
OBJECTS
  0
DICTIONARY
  5
C
330
0
100
AcDbDictionary
281
     1
  3
ACAD_COLOR
350
63
  3
ACAD_GROUP
350
D
  3
ACAD_LAYOUT
350
62
  3
ACAD_MATERIAL
350
10
  3
ACAD_MLEADERSTYLE
350
66
  3
ACAD_MLINESTYLE
350
5F
  3
ACAD_PLOTSETTINGS
350
61
  3
ACAD_PLOTSTYLENAME
350
E
  3
ACAD_SCALELIST
350
42
  3
ACAD_TABLESTYLE
350
64
  3
ACAD_VISUALSTYLE
350
29
  3
ACDB_RECOMPOSE_DATA
350
47B
  3
AcDbVariableDictionary
350
474
  3
REVIT_DICTIONARY
350
470
  0
SUN
  5
473
330
57
100
AcDbSun
 90
        1
290
     1
 63
     7
421
 16777215
 40
0.0
291
     1
 91
  2456355
 92
 53105000
292
     0
 70
     1
 71
   128
280
     1
1001
ACAD
1000
AcDbSavedByObjectVersion
1070
     0
  0
DICTIONARY
  5
63
102
{ACAD_REACTORS
330
C
102
}
330
C
100
AcDbDictionary
281
     1
  0
DICTIONARY
  5
D
102
{ACAD_REACTORS
330
C
102
}
330
C
100
AcDbDictionary
281
     1
  0
DICTIONARY
  5
62
102
{ACAD_REACTORS
330
C
102
}
330
C
100
AcDbDictionary
281
     1
  3
Layout1
350
6B
  3
Layout2
350
73
  3
Model
350
6F
  0
DICTIONARY
  5
10
102
{ACAD_REACTORS
330
C
102
}
330
C
100
AcDbDictionary
281
     1
  3
ByBlock
350
19
  3
ByLayer
350
11
  3
Global
350
21
  3
RevitMaterialDefinition14409
350
46D
  0
DICTIONARY
  5
66
102
{ACAD_REACTORS
330
C
102
}
330
C
100
AcDbDictionary
281
     1
  3
Standard
350
67
  0
DICTIONARY
  5
5F
102
{ACAD_REACTORS
330
C
102
}
330
C
100
AcDbDictionary
281
     1
  3
Standard
350
60
  0
DICTIONARY
  5
61
102
{ACAD_REACTORS
330
C
102
}
330
C
100
AcDbDictionary
281
     1
  0
ACDBDICTIONARYWDFLT
  5
E
102
{ACAD_REACTORS
330
C
102
}
330
C
100
AcDbDictionary
281
     1
  3
Normal
350
F
100
AcDbDictionaryWithDefault
340
F
  0
DICTIONARY
  5
42
102
{ACAD_REACTORS
330
C
102
}
330
C
100
AcDbDictionary
281
     1
  3
A0
350
43
  3
A1
350
44
  3
A2
350
45
  3
A3
350
46
  3
A4
350
47
  3
A5
350
48
  3
A6
350
49
  3
A7
350
4A
  3
A8
350
4B
  3
A9
350
4C
  3
B0
350
4D
  3
B1
350
4E
  3
B2
350
4F
  3
B3
350
50
  3
B4
350
51
  3
B5
350
52
  3
B6
350
53
  0
DICTIONARY
  5
64
102
{ACAD_REACTORS
330
C
102
}
330
C
100
AcDbDictionary
281
     1
  3
Standard
350
65
  0
DICTIONARY
  5
29
102
{ACAD_REACTORS
330
C
102
}
330
C
100
AcDbDictionary
281
     1
  3
2dWireframe
350
2F
  3
Basic
350
2E
  3
Brighten
350
35
  3
ColorChange
350
39
  3
Conceptual
350
32
  3
Dim
350
34
  3
EdgeColorOff
350
41
  3
Facepattern
350
38
  3
Flat
350
2A
  3
FlatWithEdges
350
2B
  3
Gouraud
350
2C
  3
GouraudWithEdges
350
2D
  3
Hidden
350
31
  3
JitterOff
350
3F
  3
Linepattern
350
37
  3
OverhangOff
350
40
  3
Realistic
350
33
  3
Shaded
350
3E
  3
Shaded with edges
350
3D
  3
Shades of Gray
350
3A
  3
Sketchy
350
3B
  3
Thicken
350
36
  3
Wireframe
350
30
  3
X-Ray
350
3C
  0
XRECORD
  5
47B
102
{ACAD_REACTORS
330
C
102
}
330
C
100
AcDbXrecord
280
     1
 90
        1
330
65
  0
DICTIONARY
  5
474
102
{ACAD_REACTORS
330
C
102
}
330
C
100
AcDbDictionary
281
     1
  3
CANNOSCALE
350
477
  3
CMLEADERSTYLE
350
476
  3
CTABLESTYLE
350
475
  3
XCLIPFRAME
350
478
  0
DICTIONARY
  5
470
102
{ACAD_REACTORS
330
C
102
}
330
C
100
AcDbDictionary
281
     1
  3
REVIT_CATEGORY_MAPPING
350
472
  3
REVIT_TYPE_MAPPING
350
471
  0
LAYOUT
  5
6B
102
{ACAD_REACTORS
330
62
102
}
330
62
100
AcDbPlotSettings
  1

  2

  4

  6

 40
0.0
 41
0.0
 42
0.0
 43
0.0
 44
0.0
 45
0.0
 46
0.0
 47
0.0
 48
0.0
 49
0.0
140
0.0
141
0.0
142
1.0
143
1.0
 70
   688
 72
     0
 73
     0
 74
     5
  7

 75
    16
147
1.0
 76
     0
 77
     2
 78
   300
148
0.0
149
0.0
100
AcDbLayout
  1
Layout1
 70
     1
 71
     1
 10
0.0
 20
0.0
 11
12.0
 21
9.0
 12
0.0
 22
0.0
 32
0.0
 14
0.0
 24
0.0
 34
0.0
 15
0.0
 25
0.0
 35
0.0
146
0.0
 13
0.0
 23
0.0
 33
0.0
 16
1.0
 26
0.0
 36
0.0
 17
0.0
 27
1.0
 37
0.0
 76
     0
330
68
  0
LAYOUT
  5
73
102
{ACAD_REACTORS
330
62
102
}
330
62
100
AcDbPlotSettings
  1

  2

  4

  6

 40
0.0
 41
0.0
 42
0.0
 43
0.0
 44
0.0
 45
0.0
 46
0.0
 47
0.0
 48
0.0
 49
0.0
140
0.0
141
0.0
142
1.0
143
1.0
 70
   688
 72
     0
 73
     0
 74
     5
  7

 75
    16
147
1.0
 76
     0
 77
     2
 78
   300
148
0.0
149
0.0
100
AcDbLayout
  1
Layout2
 70
     1
 71
     2
 10
0.0
 20
0.0
 11
12.0
 21
9.0
 12
0.0
 22
0.0
 32
0.0
 14
0.0
 24
0.0
 34
0.0
 15
0.0
 25
0.0
 35
0.0
146
0.0
 13
0.0
 23
0.0
 33
0.0
 16
1.0
 26
0.0
 36
0.0
 17
0.0
 27
1.0
 37
0.0
 76
     0
330
70
  0
LAYOUT
  5
6F
102
{ACAD_REACTORS
330
62
102
}
330
62
100
AcDbPlotSettings
  1

  2

  4

  6

 40
0.0
 41
0.0
 42
0.0
 43
0.0
 44
0.0
 45
0.0
 46
0.0
 47
0.0
 48
0.0
 49
0.0
140
0.0
141
0.0
142
1.0
143
1.0
 70
  1712
 72
     0
 73
     0
 74
     0
  7

 75
     0
147
1.0
 76
     0
 77
     2
 78
   300
148
0.0
149
0.0
100
AcDbLayout
  1
Model
 70
     1
 71
     0
 10
0.0
 20
0.0
 11
12.0
 21
9.0
 12
0.0
 22
0.0
 32
0.0
 14
0.0
 24
0.0
 34
0.0
 15
0.0
 25
0.0
 35
0.0
146
0.0
 13
0.0
 23
0.0
 33
0.0
 16
1.0
 26
0.0
 36
0.0
 17
0.0
 27
1.0
 37
0.0
 76
     0
330
6C
  0
MATERIAL
  5
19
102
{ACAD_XDICTIONARY
360
1A
102
}
102
{ACAD_REACTORS
330
10
102
}
330
10
100
AcDbMaterial
  1
ByBlock
 72
     0
 43
0.0208333333333333
 43
0.0
 43
0.0
 43
0.0
 43
0.0
 43
0.0208333333333333
 43
0.0
 43
0.0
 43
0.0
 43
0.0
 43
1.0
 43
0.0
 43
0.0
 43
0.0
 43
0.0
 43
1.0
 77
     0
 47
0.0208333333333333
 47
0.0
 47
0.0
 47
0.0
 47
0.0
 47
0.0208333333333333
 47
0.0
 47
0.0
 47
0.0
 47
0.0
 47
1.0
 47
0.0
 47
0.0
 47
0.0
 47
0.0
 47
1.0
171
     0
 49
0.0208333333333333
 49
0.0
 49
0.0
 49
0.0
 49
0.0
 49
0.0208333333333333
 49
0.0
 49
0.0
 49
0.0
 49
0.0
 49
1.0
 49
0.0
 49
0.0
 49
0.0
 49
0.0
 49
1.0
175
     0
142
0.0208333333333333
142
0.0
142
0.0
142
0.0
142
0.0
142
0.0208333333333333
142
0.0
142
0.0
142
0.0
142
0.0
142
1.0
142
0.0
142
0.0
142
0.0
142
0.0
142
1.0
179
     0
144
0.0208333333333333
144
0.0
144
0.0
144
0.0
144
0.0
144
0.0208333333333333
144
0.0
144
0.0
144
0.0
144
0.0
144
1.0
144
0.0
144
0.0
144
0.0
144
0.0
144
1.0
147
0.0208333333333333
147
0.0
147
0.0
147
0.0
147
0.0
147
0.0208333333333333
147
0.0
147
0.0
147
0.0
147
0.0
147
1.0
147
0.0
147
0.0
147
0.0
147
0.0
147
1.0
  0
MATERIAL
  5
11
102
{ACAD_XDICTIONARY
360
12
102
}
102
{ACAD_REACTORS
330
10
102
}
330
10
100
AcDbMaterial
  1
ByLayer
 72
     0
 43
0.0208333333333333
 43
0.0
 43
0.0
 43
0.0
 43
0.0
 43
0.0208333333333333
 43
0.0
 43
0.0
 43
0.0
 43
0.0
 43
1.0
 43
0.0
 43
0.0
 43
0.0
 43
0.0
 43
1.0
 77
     0
 47
0.0208333333333333
 47
0.0
 47
0.0
 47
0.0
 47
0.0
 47
0.0208333333333333
 47
0.0
 47
0.0
 47
0.0
 47
0.0
 47
1.0
 47
0.0
 47
0.0
 47
0.0
 47
0.0
 47
1.0
171
     0
 49
0.0208333333333333
 49
0.0
 49
0.0
 49
0.0
 49
0.0
 49
0.0208333333333333
 49
0.0
 49
0.0
 49
0.0
 49
0.0
 49
1.0
 49
0.0
 49
0.0
 49
0.0
 49
0.0
 49
1.0
175
     0
142
0.0208333333333333
142
0.0
142
0.0
142
0.0
142
0.0
142
0.0208333333333333
142
0.0
142
0.0
142
0.0
142
0.0
142
1.0
142
0.0
142
0.0
142
0.0
142
0.0
142
1.0
179
     0
144
0.0208333333333333
144
0.0
144
0.0
144
0.0
144
0.0
144
0.0208333333333333
144
0.0
144
0.0
144
0.0
144
0.0
144
1.0
144
0.0
144
0.0
144
0.0
144
0.0
144
1.0
147
0.0208333333333333
147
0.0
147
0.0
147
0.0
147
0.0
147
0.0208333333333333
147
0.0
147
0.0
147
0.0
147
0.0
147
1.0
147
0.0
147
0.0
147
0.0
147
0.0
147
1.0
  0
MATERIAL
  5
21
102
{ACAD_XDICTIONARY
360
22
102
}
102
{ACAD_REACTORS
330
10
102
}
330
10
100
AcDbMaterial
  1
Global
 72
     0
 43
0.0208333333333333
 43
0.0
 43
0.0
 43
0.0
 43
0.0
 43
0.0208333333333333
 43
0.0
 43
0.0
 43
0.0
 43
0.0
 43
1.0
 43
0.0
 43
0.0
 43
0.0
 43
0.0
 43
1.0
 77
     0
 47
0.0208333333333333
 47
0.0
 47
0.0
 47
0.0
 47
0.0
 47
0.0208333333333333
 47
0.0
 47
0.0
 47
0.0
 47
0.0
 47
1.0
 47
0.0
 47
0.0
 47
0.0
 47
0.0
 47
1.0
171
     0
 49
0.0208333333333333
 49
0.0
 49
0.0
 49
0.0
 49
0.0
 49
0.0208333333333333
 49
0.0
 49
0.0
 49
0.0
 49
0.0
 49
1.0
 49
0.0
 49
0.0
 49
0.0
 49
0.0
 49
1.0
175
     0
142
0.0208333333333333
142
0.0
142
0.0
142
0.0
142
0.0
142
0.0208333333333333
142
0.0
142
0.0
142
0.0
142
0.0
142
1.0
142
0.0
142
0.0
142
0.0
142
0.0
142
1.0
179
     0
144
0.0208333333333333
144
0.0
144
0.0
144
0.0
144
0.0
144
0.0208333333333333
144
0.0
144
0.0
144
0.0
144
0.0
144
1.0
144
0.0
144
0.0
144
0.0
144
0.0
144
1.0
147
0.0208333333333333
147
0.0
147
0.0
147
0.0
147
0.0
147
0.0208333333333333
147
0.0
147
0.0
147
0.0
147
0.0
147
1.0
147
0.0
147
0.0
147
0.0
147
0.0
147
1.0
  0
MATERIAL
  5
46D
102
{ACAD_XDICTIONARY
360
46E
102
}
102
{ACAD_REACTORS
330
10
102
}
330
10
100
AcDbMaterial
  1
RevitMaterialDefinition14409
 70
     1
 90
-1027753031
 71
     1
 91
-1027753031
 73
     1
 44
1.0
 76
     1
 77
     0
175
     0
145
0.0
  0
MLEADERSTYLE
  5
67
102
{ACAD_REACTORS
330
66
102
}
330
66
100
AcDbMLeaderStyle
170
     2
171
     1
172
     0
 90
        2
 40
0.0
 41
0.0
173
     1
 91
-1056964608
340
5B
 92
       -2
290
     1
 42
0.09
291
     1
 43
0.36
  3
Standard
 44
0.18
300

342
55
174
     1
178
     6
175
     1
176
     0
 93
-1056964608
 45
0.18
292
     0
297
     0
 46
0.18
 94
-1056964608
 47
1.0
 49
1.0
140
1.0
293
     1
141
0.0
294
     1
177
     0
142
1.0
295
     0
296
     0
143
0.125
1001
ACAD_MLEADERVER
1070
     2
  0
MLINESTYLE
  5
60
102
{ACAD_REACTORS
330
5F
102
}
330
5F
100
AcDbMlineStyle
  2
STANDARD
 70
     0
  3

 62
   256
 51
90.0
 52
90.0
 71
     2
 49
0.5
 62
   256
  6
BYLAYER
 49
-0.5
 62
   256
  6
BYLAYER
  0
ACDBPLACEHOLDER
  5
F
102
{ACAD_REACTORS
330
E
102
}
330
E
  0
SCALE
  5
43
102
{ACAD_REACTORS
330
42
102
}
330
42
100
AcDbScale
 70
     0
300
1:1
140
1.0
141
1.0
290
     1
  0
SCALE
  5
44
102
{ACAD_REACTORS
330
42
102
}
330
42
100
AcDbScale
 70
     0
300
1/128" = 1'-0"
140
0.0078125
141
12.0
290
     0
  0
SCALE
  5
45
102
{ACAD_REACTORS
330
42
102
}
330
42
100
AcDbScale
 70
     0
300
1/64" = 1'-0"
140
0.015625
141
12.0
290
     0
  0
SCALE
  5
46
102
{ACAD_REACTORS
330
42
102
}
330
42
100
AcDbScale
 70
     0
300
1/32" = 1'-0"
140
0.03125
141
12.0
290
     0
  0
SCALE
  5
47
102
{ACAD_REACTORS
330
42
102
}
330
42
100
AcDbScale
 70
     0
300
1/16" = 1'-0"
140
0.0625
141
12.0
290
     0
  0
SCALE
  5
48
102
{ACAD_REACTORS
330
42
102
}
330
42
100
AcDbScale
 70
     0
300
3/32" = 1'-0"
140
0.09375
141
12.0
290
     0
  0
SCALE
  5
49
102
{ACAD_REACTORS
330
42
102
}
330
42
100
AcDbScale
 70
     0
300
1/8" = 1'-0"
140
0.125
141
12.0
290
     0
  0
SCALE
  5
4A
102
{ACAD_REACTORS
330
42
102
}
330
42
100
AcDbScale
 70
     0
300
3/16" = 1'-0"
140
0.1875
141
12.0
290
     0
  0
SCALE
  5
4B
102
{ACAD_REACTORS
330
42
102
}
330
42
100
AcDbScale
 70
     0
300
1/4" = 1'-0"
140
0.25
141
12.0
290
     0
  0
SCALE
  5
4C
102
{ACAD_REACTORS
330
42
102
}
330
42
100
AcDbScale
 70
     0
300
3/8" = 1'-0"
140
0.375
141
12.0
290
     0
  0
SCALE
  5
4D
102
{ACAD_REACTORS
330
42
102
}
330
42
100
AcDbScale
 70
     0
300
1/2" = 1'-0"
140
0.5
141
12.0
290
     0
  0
SCALE
  5
4E
102
{ACAD_REACTORS
330
42
102
}
330
42
100
AcDbScale
 70
     0
300
3/4" = 1'-0"
140
0.75
141
12.0
290
     0
  0
SCALE
  5
4F
102
{ACAD_REACTORS
330
42
102
}
330
42
100
AcDbScale
 70
     0
300
1" = 1'-0"
140
1.0
141
12.0
290
     0
  0
SCALE
  5
50
102
{ACAD_REACTORS
330
42
102
}
330
42
100
AcDbScale
 70
     0
300
1-1/2" = 1'-0"
140
1.5
141
12.0
290
     0
  0
SCALE
  5
51
102
{ACAD_REACTORS
330
42
102
}
330
42
100
AcDbScale
 70
     0
300
3" = 1'-0"
140
3.0
141
12.0
290
     0
  0
SCALE
  5
52
102
{ACAD_REACTORS
330
42
102
}
330
42
100
AcDbScale
 70
     0
300
6" = 1'-0"
140
6.0
141
12.0
290
     0
  0
SCALE
  5
53
102
{ACAD_REACTORS
330
42
102
}
330
42
100
AcDbScale
 70
     0
300
1'-0" = 1'-0"
140
12.0
141
12.0
290
     0
  0
TABLESTYLE
  5
65
102
{ACAD_XDICTIONARY
360
479
102
}
102
{ACAD_REACTORS
330
64
102
}
330
64
100
AcDbTableStyle
  3
Standard
 70
     0
 71
     0
 40
0.06
 41
0.06
280
     0
281
     0
  7
Standard
140
0.18
170
     2
 62
     0
 63
     7
283
     0
 90
      512
 91
        0
  1

274
    -2
284
     1
 64
     0
275
    -2
285
     1
 65
     0
276
    -2
286
     1
 66
     0
277
    -2
287
     1
 67
     0
278
    -2
288
     1
 68
     0
279
    -2
289
     1
 69
     0
  7
Standard
140
0.25
170
     5
 62
     0
 63
     7
283
     0
 90
      512
 91
        0
  1

274
    -2
284
     1
 64
     0
275
    -2
285
     1
 65
     0
276
    -2
286
     1
 66
     0
277
    -2
287
     1
 67
     0
278
    -2
288
     1
 68
     0
279
    -2
289
     1
 69
     0
  7
Standard
140
0.18
170
     5
 62
     0
 63
     7
283
     0
 90
      512
 91
        0
  1

274
    -2
284
     1
 64
     0
275
    -2
285
     1
 65
     0
276
    -2
286
     1
 66
     0
277
    -2
287
     1
 67
     0
278
    -2
288
     1
 68
     0
279
    -2
289
     1
 69
     0
  0
VISUALSTYLE
  5
2F
102
{ACAD_XDICTIONARY
360
486
102
}
102
{ACAD_REACTORS
330
29
102
}
330
29
100
AcDbVisualStyle
  2
2dWireframe
 70
     4
 71
     0
 72
     2
 73
     0
 90
        0
 40
-0.6
 41
-30.0
 62
     5
 63
     7
421
 16777215
 74
     1
 91
        4
 64
     7
 65
   257
 75
     1
175
     1
 42
1.0
 92
        0
 66
   257
 43
1.0
 76
     1
 77
     6
 78
     2
 67
     7
 79
     5
170
     0
171
     0
290
     0
174
     0
 93
        1
 44
0.0
173
     0
291
     0
 45
0.0
1001
ACAD
1000
AcDbSavedByObjectVersion
1070
     0
  0
VISUALSTYLE
  5
2E
102
{ACAD_XDICTIONARY
360
484
102
}
102
{ACAD_REACTORS
330
29
102
}
330
29
100
AcDbVisualStyle
  2
Basic
 70
     7
 71
     1
 72
     0
 73
     1
 90
        0
 40
-0.6
 41
-30.0
 62
     5
 63
     7
421
 16777215
 74
     0
 91
        4
 64
     7
 65
   257
 75
     1
175
     1
 42
1.0
 92
        8
 66
     7
 43
1.0
 76
     1
 77
     6
 78
     2
 67
     7
 79
     5
170
     0
171
     0
290
     0
174
     0
 93
        1
 44
0.0
173
     0
291
     1
 45
0.0
1001
ACAD
1000
AcDbSavedByObjectVersion
1070
     0
  0
VISUALSTYLE
  5
35
102
{ACAD_XDICTIONARY
360
492
102
}
102
{ACAD_REACTORS
330
29
102
}
330
29
100
AcDbVisualStyle
  2
Brighten
 70
    12
 71
     2
 72
     2
 73
     0
 90
        0
 40
-0.6
 41
-30.0
 62
     5
 63
     7
421
 16777215
 74
     1
 91
        4
 64
     7
 65
   257
 75
     1
175
     1
 42
1.0
 92
        8
 66
     7
 43
1.0
 76
     1
 77
     6
 78
     2
 67
     7
 79
     5
170
     0
171
     0
290
     0
174
     0
 93
        1
 44
50.0
173
     0
291
     1
 45
0.0
1001
ACAD
1000
AcDbSavedByObjectVersion
1070
     0
  0
VISUALSTYLE
  5
39
102
{ACAD_XDICTIONARY
360
49A
102
}
102
{ACAD_REACTORS
330
29
102
}
330
29
100
AcDbVisualStyle
  2
ColorChange
 70
    16
 71
     2
 72
     2
 73
     3
 90
        0
 40
-0.6
 41
-30.0
 62
     5
 63
     8
421
  8421504
 74
     1
 91
        4
 64
     7
 65
   257
 75
     1
175
     1
 42
1.0
 92
        8
 66
     8
424
  8421504
 43
1.0
 76
     1
 77
     6
 78
     2
 67
     7
 79
     5
170
     0
171
     0
290
     0
174
     0
 93
        1
 44
0.0
173
     0
291
     1
 45
0.0
1001
ACAD
1000
AcDbSavedByObjectVersion
1070
     0
  0
VISUALSTYLE
  5
32
102
{ACAD_XDICTIONARY
360
48C
102
}
102
{ACAD_REACTORS
330
29
102
}
330
29
100
AcDbVisualStyle
  2
Conceptual
 70
     9
 71
     3
 72
     2
 73
     0
 90
        0
 40
-0.6
 41
-30.0
 62
     5
 63
     7
421
 16777215
 74
     2
 91
        2
 64
     7
 65
   257
 75
     1
175
     1
 42
179.0
 92
        8
 66
     7
 43
1.0
 76
     1
 77
     6
 78
     2
 67
     7
 79
     3
170
     0
171
     0
290
     0
174
     0
 93
        1
 44
0.0
173
     0
291
     0
 45
0.0
1001
ACAD
1000
AcDbSavedByObjectVersion
1070
     0
  0
VISUALSTYLE
  5
34
102
{ACAD_XDICTIONARY
360
490
102
}
102
{ACAD_REACTORS
330
29
102
}
330
29
100
AcDbVisualStyle
  2
Dim
 70
    11
 71
     2
 72
     2
 73
     0
 90
        0
 40
-0.6
 41
-30.0
 62
     5
 63
     7
421
 16777215
 74
     1
 91
        4
 64
     7
 65
   257
 75
     1
175
     1
 42
1.0
 92
        8
 66
     7
 43
1.0
 76
     1
 77
     6
 78
     2
 67
     7
 79
     5
170
     0
171
     0
290
     0
174
     0
 93
        1
 44
-50.0
173
     0
291
     1
 45
0.0
1001
ACAD
1000
AcDbSavedByObjectVersion
1070
     0
  0
VISUALSTYLE
  5
41
102
{ACAD_XDICTIONARY
360
4AA
102
}
102
{ACAD_REACTORS
330
29
102
}
330
29
100
AcDbVisualStyle
  2
EdgeColorOff
 70
    22
 71
     2
 72
     2
 73
     0
 90
        0
 40
-0.6
 41
-30.0
 62
     5
 63
     7
421
 16777215
 74
     1
 91
        4
 64
     7
 65
   257
 75
     1
175
     1
 42
1.0
 92
        8
 66
     7
 43
1.0
 76
     1
 77
     6
 78
     2
 67
     7
 79
     5
170
     0
171
     0
290
     0
174
     0
 93
        1
 44
0.0
173
     0
291
     1
 45
0.0
1001
ACAD
1000
AcDbSavedByObjectVersion
1070
     0
  0
VISUALSTYLE
  5
38
102
{ACAD_XDICTIONARY
360
498
102
}
102
{ACAD_REACTORS
330
29
102
}
330
29
100
AcDbVisualStyle
  2
Facepattern
 70
    15
 71
     2
 72
     2
 73
     0
 90
        0
 40
-0.6
 41
-30.0
 62
     5
 63
     7
421
 16777215
 74
     1
 91
        4
 64
     7
 65
   257
 75
     1
175
     1
 42
1.0
 92
        8
 66
     7
 43
1.0
 76
     1
 77
     6
 78
     2
 67
     7
 79
     5
170
     0
171
     0
290
     0
174
     0
 93
        1
 44
0.0
173
     0
291
     1
 45
0.0
1001
ACAD
1000
AcDbSavedByObjectVersion
1070
     0
  0
VISUALSTYLE
  5
2A
102
{ACAD_XDICTIONARY
360
47C
102
}
102
{ACAD_REACTORS
330
29
102
}
330
29
100
AcDbVisualStyle
  2
Flat
 70
     0
 71
     2
 72
     1
 73
     1
 90
        2
 40
-0.6
 41
30.0
 62
     5
 63
     7
421
 16777215
 74
     0
 91
        0
 64
     7
 65
   257
 75
     1
175
     1
 42
1.0
 92
        8
 66
     7
 43
1.0
 76
     1
 77
     6
 78
     2
 67
     7
 79
     5
170
     0
171
     0
290
     0
174
     0
 93
       13
 44
0.0
173
     0
291
     1
 45
0.0
1001
ACAD
1000
AcDbSavedByObjectVersion
1070
     0
  0
VISUALSTYLE
  5
2B
102
{ACAD_XDICTIONARY
360
47E
102
}
102
{ACAD_REACTORS
330
29
102
}
330
29
100
AcDbVisualStyle
  2
FlatWithEdges
 70
     1
 71
     2
 72
     1
 73
     1
 90
        2
 40
-0.6
 41
30.0
 62
     5
 63
     7
421
 16777215
 74
     1
 91
        0
 64
     7
 65
   257
 75
     1
175
     1
 42
1.0
 92
        0
 66
   257
 43
1.0
 76
     1
 77
     6
 78
     2
 67
     7
 79
     5
170
     0
171
     0
290
     0
174
     0
 93
       13
 44
0.0
173
     0
291
     1
 45
0.0
1001
ACAD
1000
AcDbSavedByObjectVersion
1070
     0
  0
VISUALSTYLE
  5
2C
102
{ACAD_XDICTIONARY
360
480
102
}
102
{ACAD_REACTORS
330
29
102
}
330
29
100
AcDbVisualStyle
  2
Gouraud
 70
     2
 71
     2
 72
     2
 73
     1
 90
        2
 40
-0.6
 41
30.0
 62
     5
 63
     7
421
 16777215
 74
     0
 91
        0
 64
     7
 65
   257
 75
     1
175
     1
 42
1.0
 92
        0
 66
     7
 43
1.0
 76
     1
 77
     6
 78
     2
 67
     7
 79
     5
170
     0
171
     0
290
     0
174
     0
 93
       13
 44
0.0
173
     0
291
     1
 45
0.0
1001
ACAD
1000
AcDbSavedByObjectVersion
1070
     0
  0
VISUALSTYLE
  5
2D
102
{ACAD_XDICTIONARY
360
482
102
}
102
{ACAD_REACTORS
330
29
102
}
330
29
100
AcDbVisualStyle
  2
GouraudWithEdges
 70
     3
 71
     2
 72
     2
 73
     1
 90
        2
 40
-0.6
 41
30.0
 62
     5
 63
     7
421
 16777215
 74
     1
 91
        0
 64
     7
 65
   257
 75
     1
175
     1
 42
1.0
 92
        0
 66
   257
 43
1.0
 76
     1
 77
     6
 78
     2
 67
     7
 79
     5
170
     0
171
     0
290
     0
174
     0
 93
       13
 44
0.0
173
     0
291
     1
 45
0.0
1001
ACAD
1000
AcDbSavedByObjectVersion
1070
     0
  0
VISUALSTYLE
  5
31
102
{ACAD_XDICTIONARY
360
48A
102
}
102
{ACAD_REACTORS
330
29
102
}
330
29
100
AcDbVisualStyle
  2
Hidden
 70
     6
 71
     1
 72
     2
 73
     2
 90
        0
 40
-0.6
 41
-30.0
 62
     5
 63
     7
421
 16777215
 74
     2
 91
        2
 64
     7
 65
   257
 75
     2
175
     1
 42
40.0
 92
        0
 66
   257
 43
1.0
 76
     1
 77
     6
 78
     2
 67
     7
 79
     3
170
     0
171
     0
290
     0
174
     0
 93
        1
 44
0.0
173
     0
291
     0
 45
0.0
1001
ACAD
1000
AcDbSavedByObjectVersion
1070
     0
  0
VISUALSTYLE
  5
3F
102
{ACAD_XDICTIONARY
360
4A6
102
}
102
{ACAD_REACTORS
330
29
102
}
330
29
100
AcDbVisualStyle
  2
JitterOff
 70
    20
 71
     2
 72
     2
 73
     0
 90
        0
 40
-0.6
 41
-30.0
 62
     5
 63
     7
421
 16777215
 74
     1
 91
        4
 64
     7
 65
   257
 75
     1
175
     1
 42
1.0
 92
       10
 66
     7
 43
1.0
 76
     1
 77
     6
 78
     2
 67
     7
 79
     5
170
     0
171
     0
290
     0
174
     0
 93
        1
 44
0.0
173
     0
291
     1
 45
0.0
1001
ACAD
1000
AcDbSavedByObjectVersion
1070
     0
  0
VISUALSTYLE
  5
37
102
{ACAD_XDICTIONARY
360
496
102
}
102
{ACAD_REACTORS
330
29
102
}
330
29
100
AcDbVisualStyle
  2
Linepattern
 70
    14
 71
     2
 72
     2
 73
     0
 90
        0
 40
-0.6
 41
-30.0
 62
     5
 63
     7
421
 16777215
 74
     1
 91
        4
 64
     7
 65
   257
 75
     7
175
     7
 42
1.0
 92
        8
 66
     7
 43
1.0
 76
     1
 77
     6
 78
     2
 67
     7
 79
     5
170
     0
171
     0
290
     0
174
     0
 93
        1
 44
0.0
173
     0
291
     1
 45
0.0
1001
ACAD
1000
AcDbSavedByObjectVersion
1070
     0
  0
VISUALSTYLE
  5
40
102
{ACAD_XDICTIONARY
360
4A8
102
}
102
{ACAD_REACTORS
330
29
102
}
330
29
100
AcDbVisualStyle
  2
OverhangOff
 70
    21
 71
     2
 72
     2
 73
     0
 90
        0
 40
-0.6
 41
-30.0
 62
     5
 63
     7
421
 16777215
 74
     1
 91
        4
 64
     7
 65
   257
 75
     1
175
     1
 42
1.0
 92
        9
 66
     7
 43
1.0
 76
     1
 77
     6
 78
     2
 67
     7
 79
     5
170
     0
171
     0
290
     0
174
     0
 93
        1
 44
0.0
173
     0
291
     1
 45
0.0
1001
ACAD
1000
AcDbSavedByObjectVersion
1070
     0
  0
VISUALSTYLE
  5
33
102
{ACAD_XDICTIONARY
360
48E
102
}
102
{ACAD_REACTORS
330
29
102
}
330
29
100
AcDbVisualStyle
  2
Realistic
 70
     8
 71
     2
 72
     3
 73
     0
 90
        2
 40
-0.6
 41
30.0
 62
     5
 63
     7
421
 16777215
 74
     0
 91
        0
 64
     7
 65
   257
 75
     1
175
     1
 42
1.0
 92
        8
 66
   257
 43
1.0
 76
     1
 77
     6
 78
     2
 67
     7
 79
     3
170
     0
171
     0
290
     0
174
     0
 93
       13
 44
0.0
173
     0
291
     0
 45
0.0
1001
ACAD
1000
AcDbSavedByObjectVersion
1070
     0
  0
VISUALSTYLE
  5
3E
102
{ACAD_XDICTIONARY
360
4A4
102
}
102
{ACAD_REACTORS
330
29
102
}
330
29
100
AcDbVisualStyle
  2
Shaded
 70
    27
 71
     2
 72
     2
 73
     1
 90
        2
 40
-0.6
 41
30.0
 62
     5
 63
     7
421
 16777215
 74
     0
 91
        4
 64
     7
 65
   257
 75
     1
175
     1
 42
1.0
 92
        8
 66
   257
 43
1.0
 76
     1
 77
     6
 78
     2
 67
     8
425
  7895160
 79
     3
170
     0
171
     0
290
     0
174
     0
 93
        5
 44
0.0
173
     0
291
     0
 45
0.0
1001
ACAD
1000
AcDbSavedByObjectVersion
1070
     0
  0
VISUALSTYLE
  5
3D
102
{ACAD_XDICTIONARY
360
4A2
102
}
102
{ACAD_REACTORS
330
29
102
}
330
29
100
AcDbVisualStyle
  2
Shaded with edges
 70
    26
 71
     2
 72
     2
 73
     1
 90
        2
 40
-0.6
 41
30.0
 62
     5
 63
     7
421
 16777215
 74
     1
 91
       10
 64
     7
 65
   257
 75
     2
175
     1
 42
1.0
 92
        8
 66
   257
 43
1.0
 76
     1
 77
     6
 78
     2
 67
     7
 79
     3
170
     0
171
     0
290
     0
174
     0
 93
        5
 44
0.0
173
     0
291
     0
 45
0.0
1001
ACAD
1000
AcDbSavedByObjectVersion
1070
     0
  0
VISUALSTYLE
  5
3A
102
{ACAD_XDICTIONARY
360
49C
102
}
102
{ACAD_REACTORS
330
29
102
}
330
29
100
AcDbVisualStyle
  2
Shades of Gray
 70
    23
 71
     2
 72
     2
 73
     3
 90
        0
 40
-0.6
 41
-30.0
 62
     5
 63
     7
421
 16777215
 74
     2
 91
        2
 64
     7
 65
     7
 75
     1
175
     1
 42
40.0
 92
        8
 66
     7
 43
1.0
 76
     1
 77
     6
 78
     2
 67
     7
 79
     3
170
     0
171
     0
290
     0
174
     0
 93
        1
 44
0.0
173
     0
291
     0
 45
0.0
1001
ACAD
1000
AcDbSavedByObjectVersion
1070
     0
  0
VISUALSTYLE
  5
3B
102
{ACAD_XDICTIONARY
360
49E
102
}
102
{ACAD_REACTORS
330
29
102
}
330
29
100
AcDbVisualStyle
  2
Sketchy
 70
    24
 71
     1
 72
     2
 73
     2
 90
        0
 40
-0.6
 41
-30.0
 62
     5
 63
     7
421
 16777215
 74
     2
 91
        2
 64
     7
 65
     7
 75
     1
175
     1
 42
40.0
 92
       11
 66
     7
 43
1.0
 76
     1
 77
     6
 78
     2
 67
     7
 79
     6
170
     0
171
     0
290
     0
174
     0
 93
        1
 44
0.0
173
     0
291
     0
 45
0.0
1001
ACAD
1000
AcDbSavedByObjectVersion
1070
     0
  0
VISUALSTYLE
  5
36
102
{ACAD_XDICTIONARY
360
494
102
}
102
{ACAD_REACTORS
330
29
102
}
330
29
100
AcDbVisualStyle
  2
Thicken
 70
    13
 71
     2
 72
     2
 73
     0
 90
        0
 40
-0.6
 41
-30.0
 62
     5
 63
     7
421
 16777215
 74
     1
 91
        4
 64
     7
 65
   257
 75
     1
175
     1
 42
1.0
 92
       12
 66
     7
 43
1.0
 76
     1
 77
     6
 78
     2
 67
     7
 79
     5
170
     0
171
     0
290
     0
174
     0
 93
        1
 44
0.0
173
     0
291
     1
 45
0.0
1001
ACAD
1000
AcDbSavedByObjectVersion
1070
     0
  0
VISUALSTYLE
  5
30
102
{ACAD_XDICTIONARY
360
488
102
}
102
{ACAD_REACTORS
330
29
102
}
330
29
100
AcDbVisualStyle
  2
Wireframe
 70
     5
 71
     0
 72
     2
 73
     0
 90
        0
 40
-0.6
 41
-30.0
 62
     5
 63
     7
421
 16777215
 74
     1
 91
        4
 64
     7
 65
   257
 75
     1
175
     1
 42
1.0
 92
        0
 66
   257
 43
1.0
 76
     1
 77
     6
 78
     2
 67
     7
 79
     3
170
     0
171
     0
290
     0
174
     0
 93
        1
 44
0.0
173
     0
291
     0
 45
0.0
1001
ACAD
1000
AcDbSavedByObjectVersion
1070
     0
  0
VISUALSTYLE
  5
3C
102
{ACAD_XDICTIONARY
360
4A0
102
}
102
{ACAD_REACTORS
330
29
102
}
330
29
100
AcDbVisualStyle
  2
X-Ray
 70
    25
 71
     2
 72
     2
 73
     1
 90
        1
 40
0.5
 41
-30.0
 62
     5
 63
     7
421
 16777215
 74
     1
 91
        0
 64
     7
 65
   257
 75
     1
175
     1
 42
1.0
 92
        8
 66
     7
 43
1.0
 76
     1
 77
     6
 78
     2
 67
     7
 79
     3
170
     0
171
     0
290
     0
174
     0
 93
       13
 44
0.0
173
     0
291
     0
 45
0.0
1001
ACAD
1000
AcDbSavedByObjectVersion
1070
     0
  0
DICTIONARYVAR
  5
477
102
{ACAD_REACTORS
330
474
102
}
330
474
100
DictionaryVariables
280
     0
  1
1:1
  0
DICTIONARYVAR
  5
476
102
{ACAD_REACTORS
330
474
102
}
330
474
100
DictionaryVariables
280
     0
  1
STANDARD
  0
DICTIONARYVAR
  5
475
102
{ACAD_REACTORS
330
474
102
}
330
474
100
DictionaryVariables
280
     0
  1
STANDARD
  0
DICTIONARYVAR
  5
478
102
{ACAD_REACTORS
330
474
102
}
330
474
100
DictionaryVariables
280
     0
  1
2
  0
XRECORD
  5
472
102
{ACAD_REACTORS
330
470
102
}
330
470
100
AcDbXrecord
280
     1
  1
-2001350
  1
Specialty Equipment
  0
XRECORD
  5
471
102
{ACAD_REACTORS
330
470
102
}
330
470
100
AcDbXrecord
280
     1
  1
18709
  1
Model H : Model H
  0
DICTIONARY
  5
1A
330
19
100
AcDbDictionary
280
     1
281
     1
  3
BUMPTILE
360
1C
  3
DIFFUSETILE
360
1B
  3
OPACITYTILE
360
1F
  3
REFLECTIONTILE
360
1E
  3
REFRACTIONTILE
360
20
  3
SPECULARTILE
360
1D
  0
DICTIONARY
  5
12
330
11
100
AcDbDictionary
280
     1
281
     1
  3
BUMPTILE
360
14
  3
DIFFUSETILE
360
13
  3
OPACITYTILE
360
17
  3
REFLECTIONTILE
360
16
  3
REFRACTIONTILE
360
18
  3
SPECULARTILE
360
15
  0
DICTIONARY
  5
22
330
21
100
AcDbDictionary
280
     1
281
     1
  3
BUMPTILE
360
24
  3
DIFFUSETILE
360
23
  3
OPACITYTILE
360
27
  3
REFLECTIONTILE
360
26
  3
REFRACTIONTILE
360
28
  3
SPECULARTILE
360
25
  0
DICTIONARY
  5
46E
330
46D
100
AcDbDictionary
280
     1
281
     1
  3
VIZ XML Material Definition
360
46F
  0
DICTIONARY
  5
479
330
65
100
AcDbDictionary
280
     1
281
     1
  3
ACAD_ROUNDTRIP_2008_TABLESTYLE_CELLSTYLEMAP
360
47A
  0
DICTIONARY
  5
486
330
2F
100
AcDbDictionary
280
     1
281
     1
  3
ACAD_XREC_ROUNDTRIP
360
487
  0
DICTIONARY
  5
484
330
2E
100
AcDbDictionary
280
     1
281
     1
  3
ACAD_XREC_ROUNDTRIP
360
485
  0
DICTIONARY
  5
492
330
35
100
AcDbDictionary
280
     1
281
     1
  3
ACAD_XREC_ROUNDTRIP
360
493
  0
DICTIONARY
  5
49A
330
39
100
AcDbDictionary
280
     1
281
     1
  3
ACAD_XREC_ROUNDTRIP
360
49B
  0
DICTIONARY
  5
48C
330
32
100
AcDbDictionary
280
     1
281
     1
  3
ACAD_XREC_ROUNDTRIP
360
48D
  0
DICTIONARY
  5
490
330
34
100
AcDbDictionary
280
     1
281
     1
  3
ACAD_XREC_ROUNDTRIP
360
491
  0
DICTIONARY
  5
4AA
330
41
100
AcDbDictionary
280
     1
281
     1
  3
ACAD_XREC_ROUNDTRIP
360
4AB
  0
DICTIONARY
  5
498
330
38
100
AcDbDictionary
280
     1
281
     1
  3
ACAD_XREC_ROUNDTRIP
360
499
  0
DICTIONARY
  5
47C
330
2A
100
AcDbDictionary
280
     1
281
     1
  3
ACAD_XREC_ROUNDTRIP
360
47D
  0
DICTIONARY
  5
47E
330
2B
100
AcDbDictionary
280
     1
281
     1
  3
ACAD_XREC_ROUNDTRIP
360
47F
  0
DICTIONARY
  5
480
330
2C
100
AcDbDictionary
280
     1
281
     1
  3
ACAD_XREC_ROUNDTRIP
360
481
  0
DICTIONARY
  5
482
330
2D
100
AcDbDictionary
280
     1
281
     1
  3
ACAD_XREC_ROUNDTRIP
360
483
  0
DICTIONARY
  5
48A
330
31
100
AcDbDictionary
280
     1
281
     1
  3
ACAD_XREC_ROUNDTRIP
360
48B
  0
DICTIONARY
  5
4A6
330
3F
100
AcDbDictionary
280
     1
281
     1
  3
ACAD_XREC_ROUNDTRIP
360
4A7
  0
DICTIONARY
  5
496
330
37
100
AcDbDictionary
280
     1
281
     1
  3
ACAD_XREC_ROUNDTRIP
360
497
  0
DICTIONARY
  5
4A8
330
40
100
AcDbDictionary
280
     1
281
     1
  3
ACAD_XREC_ROUNDTRIP
360
4A9
  0
DICTIONARY
  5
48E
330
33
100
AcDbDictionary
280
     1
281
     1
  3
ACAD_XREC_ROUNDTRIP
360
48F
  0
DICTIONARY
  5
4A4
330
3E
100
AcDbDictionary
280
     1
281
     1
  3
ACAD_XREC_ROUNDTRIP
360
4A5
  0
DICTIONARY
  5
4A2
330
3D
100
AcDbDictionary
280
     1
281
     1
  3
ACAD_XREC_ROUNDTRIP
360
4A3
  0
DICTIONARY
  5
49C
330
3A
100
AcDbDictionary
280
     1
281
     1
  3
ACAD_XREC_ROUNDTRIP
360
49D
  0
DICTIONARY
  5
49E
330
3B
100
AcDbDictionary
280
     1
281
     1
  3
ACAD_XREC_ROUNDTRIP
360
49F
  0
DICTIONARY
  5
494
330
36
100
AcDbDictionary
280
     1
281
     1
  3
ACAD_XREC_ROUNDTRIP
360
495
  0
DICTIONARY
  5
488
330
30
100
AcDbDictionary
280
     1
281
     1
  3
ACAD_XREC_ROUNDTRIP
360
489
  0
DICTIONARY
  5
4A0
330
3C
100
AcDbDictionary
280
     1
281
     1
  3
ACAD_XREC_ROUNDTRIP
360
4A1
  0
XRECORD
  5
1C
102
{ACAD_REACTORS
330
1A
102
}
330
1A
100
AcDbXrecord
280
     1
270
     1
271
     1
  0
XRECORD
  5
1B
102
{ACAD_REACTORS
330
1A
102
}
330
1A
100
AcDbXrecord
280
     1
270
     1
271
     1
  0
XRECORD
  5
1F
102
{ACAD_REACTORS
330
1A
102
}
330
1A
100
AcDbXrecord
280
     1
270
     1
271
     1
  0
XRECORD
  5
1E
102
{ACAD_REACTORS
330
1A
102
}
330
1A
100
AcDbXrecord
280
     1
270
     1
271
     1
  0
XRECORD
  5
20
102
{ACAD_REACTORS
330
1A
102
}
330
1A
100
AcDbXrecord
280
     1
270
     1
271
     1
  0
XRECORD
  5
1D
102
{ACAD_REACTORS
330
1A
102
}
330
1A
100
AcDbXrecord
280
     1
270
     1
271
     1
  0
XRECORD
  5
14
102
{ACAD_REACTORS
330
12
102
}
330
12
100
AcDbXrecord
280
     1
270
     1
271
     1
  0
XRECORD
  5
13
102
{ACAD_REACTORS
330
12
102
}
330
12
100
AcDbXrecord
280
     1
270
     1
271
     1
  0
XRECORD
  5
17
102
{ACAD_REACTORS
330
12
102
}
330
12
100
AcDbXrecord
280
     1
270
     1
271
     1
  0
XRECORD
  5
16
102
{ACAD_REACTORS
330
12
102
}
330
12
100
AcDbXrecord
280
     1
270
     1
271
     1
  0
XRECORD
  5
18
102
{ACAD_REACTORS
330
12
102
}
330
12
100
AcDbXrecord
280
     1
270
     1
271
     1
  0
XRECORD
  5
15
102
{ACAD_REACTORS
330
12
102
}
330
12
100
AcDbXrecord
280
     1
270
     1
271
     1
  0
XRECORD
  5
24
102
{ACAD_REACTORS
330
22
102
}
330
22
100
AcDbXrecord
280
     1
270
     1
271
     1
  0
XRECORD
  5
23
102
{ACAD_REACTORS
330
22
102
}
330
22
100
AcDbXrecord
280
     1
270
     1
271
     1
  0
XRECORD
  5
27
102
{ACAD_REACTORS
330
22
102
}
330
22
100
AcDbXrecord
280
     1
270
     1
271
     1
  0
XRECORD
  5
26
102
{ACAD_REACTORS
330
22
102
}
330
22
100
AcDbXrecord
280
     1
270
     1
271
     1
  0
XRECORD
  5
28
102
{ACAD_REACTORS
330
22
102
}
330
22
100
AcDbXrecord
280
     1
270
     1
271
     1
  0
XRECORD
  5
25
102
{ACAD_REACTORS
330
22
102
}
330
22
100
AcDbXrecord
280
     1
270
     1
271
     1
  0
XRECORD
  5
46F
102
{ACAD_REACTORS
330
46E
102
}
330
46E
100
AcDbXrecord
280
     1
300
<Material id="RevitMaterialDefinition14409" app="REVIT" Background="0" Backlight="1" Sample="0" Tiling="0">^J<LinearUnits unitType="foot" unitScale="1.0"/>^J<ArchitecturalMaterial name="Metal - Stainless Steel">^J<ArchTemplateParameters name="Metal - Stainle
300
ss Steel" classid_A="2008828122" classid_B="14503598">^J</ArchTemplateParameters>^J<ArchMatParameters>^J<ArchDiffuseColor>^J<RGBf r="0.7412" g="0.7333" b="0.7255"/>^J</ArchDiffuseColor>^J<ArchIndexOfRefraction>2.0000</ArchIndexOfRefraction>^J<ArchTransparency>0.
300
0000</ArchTransparency>^J<ArchLuminance>0.0000</ArchLuminance>^J</ArchMatParameters>^J</ArchitecturalMaterial>^J</Material>^J
  0
CELLSTYLEMAP
  5
47A
102
{ACAD_REACTORS
330
479
102
}
330
479
100
AcDbCellStyleMap
 90
        3
300
CELLSTYLE
  1
TABLEFORMAT_BEGIN
 90
        5
170
     1
 91
        0
 92
    32768
 62
   257
 93
        1
300
CONTENTFORMAT
  1
CONTENTFORMAT_BEGIN
 90
        0
 91
        0
 92
      512
 93
        0
300

 40
0.0
140
1.0
 94
        5
 62
     0
340
55
144
0.25
309
CONTENTFORMAT_END
171
     0
 94
        0
309
TABLEFORMAT_END
  1
CELLSTYLE_BEGIN
 90
        1
 91
        1
300
_TITLE
309
CELLSTYLE_END
300
CELLSTYLE
  1
TABLEFORMAT_BEGIN
 90
        5
170
     1
 91
        0
 92
        0
 62
   257
 93
        1
300
CONTENTFORMAT
  1
CONTENTFORMAT_BEGIN
 90
        0
 91
        0
 92
      512
 93
        0
300

 40
0.0
140
1.0
 94
        5
 62
     0
340
55
144
0.18
309
CONTENTFORMAT_END
171
     0
 94
        0
309
TABLEFORMAT_END
  1
CELLSTYLE_BEGIN
 90
        2
 91
        1
300
_HEADER
309
CELLSTYLE_END
300
CELLSTYLE
  1
TABLEFORMAT_BEGIN
 90
        5
170
     1
 91
        0
 92
        0
 62
   257
 93
        1
300
CONTENTFORMAT
  1
CONTENTFORMAT_BEGIN
 90
        0
 91
        0
 92
      512
 93
        0
300

 40
0.0
140
1.0
 94
        2
 62
     0
340
55
144
0.18
309
CONTENTFORMAT_END
171
     0
 94
        0
309
TABLEFORMAT_END
  1
CELLSTYLE_BEGIN
 90
        3
 91
        2
300
_DATA
309
CELLSTYLE_END
  0
XRECORD
  5
487
102
{ACAD_REACTORS
330
486
102
}
330
486
100
AcDbXrecord
280
     1
102
RTVSPropertyOp0
 70
     1
102
RTVSPropertyOp1
 70
     1
102
RTVSPropertyOp2
 70
     1
102
RTVSPropertyOp3
 70
     1
102
RTVSPropertyOp4
 70
     1
102
RTVSPropertyOp5
 70
     1
102
RTVSPropertyOp6
 70
     1
102
RTVSPropertyOp7
 70
     1
102
RTVSPropertyOp8
 70
     1
102
RTVSPropertyOp9
 70
     1
102
RTVSPropertyOp10
 70
     1
102
RTVSPropertyOp11
 70
     1
102
RTVSPropertyOp12
 70
     1
102
RTVSPropertyOp13
 70
     1
102
RTVSPropertyOp14
 70
     1
102
RTVSPropertyOp15
 70
     1
102
RTVSPropertyOp16
 70
     1
102
RTVSPropertyOp17
 70
     1
102
RTVSPropertyOp18
 70
     1
102
RTVSPropertyOp19
 70
     1
102
RTVSPropertyOp20
 70
     1
102
RTVSPropertyOp21
 70
     1
102
RTVSPropertyOp22
 70
     1
102
RTVSPropertyOp23
 70
     1
102
RTVSPropertyOp24
 70
     1
102
RTVSPropertyOp25
 70
     1
102
RTVSPropertyOp26
 70
     1
102
RTVSPropertyOp27
 70
     1
102
RTVSPropertyOp28
 70
     1
102
RTVSPropertyOp29
 70
     1
102
RTVSPropertyOp30
 70
     1
102
RTVSPropertyOp31
 70
     1
102
RTVSPropertyOp32
 70
     1
  0
XRECORD
  5
485
102
{ACAD_REACTORS
330
484
102
}
330
484
100
AcDbXrecord
280
     1
102
RTVSPropertyOp0
 70
     1
102
RTVSPropertyOp1
 70
     1
102
RTVSPropertyOp2
 70
     1
102
RTVSPropertyOp3
 70
     1
102
RTVSPropertyOp4
 70
     1
102
RTVSPropertyOp5
 70
     1
102
RTVSPropertyOp6
 70
     1
102
RTVSPropertyOp7
 70
     1
102
RTVSPropertyOp8
 70
     1
102
RTVSPropertyOp9
 70
     1
102
RTVSPropertyOp10
 70
     1
102
RTVSPropertyOp11
 70
     1
102
RTVSPropertyOp12
 70
     1
102
RTVSPropertyOp13
 70
     1
102
RTVSPropertyOp14
 70
     1
102
RTVSPropertyOp15
 70
     1
102
RTVSPropertyOp16
 70
     1
102
RTVSPropertyOp17
 70
     1
102
RTVSPropertyOp18
 70
     1
102
RTVSPropertyOp19
 70
     1
102
RTVSPropertyOp20
 70
     1
102
RTVSPropertyOp21
 70
     1
102
RTVSPropertyOp22
 70
     1
102
RTVSPropertyOp23
 70
     1
102
RTVSPropertyOp24
 70
     1
102
RTVSPropertyOp25
 70
     1
102
RTVSPropertyOp26
 70
     1
102
RTVSPropertyOp27
 70
     1
102
RTVSPropertyOp28
 70
     1
102
RTVSPropertyOp29
 70
     1
102
RTVSPropertyOp30
 70
     1
102
RTVSPropertyOp31
 70
     1
102
RTVSPropertyOp32
 70
     1
  0
XRECORD
  5
493
102
{ACAD_REACTORS
330
492
102
}
330
492
100
AcDbXrecord
280
     1
102
RTVSPropertyOp0
 70
     1
102
RTVSPropertyOp1
 70
     1
102
RTVSPropertyOp2
 70
     1
102
RTVSPropertyOp3
 70
     1
102
RTVSPropertyOp4
 70
     1
102
RTVSPropertyOp5
 70
     1
102
RTVSPropertyOp6
 70
     1
102
RTVSPropertyOp7
 70
     1
102
RTVSPropertyOp8
 70
     1
102
RTVSPropertyOp9
 70
     1
102
RTVSPropertyOp10
 70
     1
102
RTVSPropertyOp11
 70
     1
102
RTVSPropertyOp12
 70
     1
102
RTVSPropertyOp13
 70
     1
102
RTVSPropertyOp14
 70
     1
102
RTVSPropertyOp15
 70
     1
102
RTVSPropertyOp16
 70
     1
102
RTVSPropertyOp17
 70
     1
102
RTVSPropertyOp18
 70
     1
102
RTVSPropertyOp19
 70
     1
102
RTVSPropertyOp20
 70
     1
102
RTVSPropertyOp21
 70
     1
102
RTVSPropertyOp22
 70
     1
102
RTVSPropertyOp23
 70
     1
102
RTVSPropertyOp24
 70
     1
102
RTVSPropertyOp25
 70
     1
102
RTVSPropertyOp26
 70
     1
102
RTVSPropertyOp27
 70
     1
102
RTVSPropertyOp28
 70
     1
102
RTVSPropertyOp29
 70
     1
102
RTVSPropertyOp30
 70
     1
102
RTVSPropertyOp31
 70
     1
102
RTVSPropertyOp32
 70
     1
  0
XRECORD
  5
49B
102
{ACAD_REACTORS
330
49A
102
}
330
49A
100
AcDbXrecord
280
     1
102
RTVSPropertyOp0
 70
     1
102
RTVSPropertyOp1
 70
     1
102
RTVSPropertyOp2
 70
     1
102
RTVSPropertyOp3
 70
     1
102
RTVSPropertyOp4
 70
     1
102
RTVSPropertyOp5
 70
     1
102
RTVSPropertyOp6
 70
     1
102
RTVSPropertyOp7
 70
     1
102
RTVSPropertyOp8
 70
     1
102
RTVSPropertyOp9
 70
     1
102
RTVSPropertyOp10
 70
     1
102
RTVSPropertyOp11
 70
     1
102
RTVSPropertyOp12
 70
     1
102
RTVSPropertyOp13
 70
     1
102
RTVSPropertyOp14
 70
     1
102
RTVSPropertyOp15
 70
     1
102
RTVSPropertyOp16
 70
     1
102
RTVSPropertyOp17
 70
     1
102
RTVSPropertyOp18
 70
     1
102
RTVSPropertyOp19
 70
     1
102
RTVSPropertyOp20
 70
     1
102
RTVSPropertyOp21
 70
     1
102
RTVSPropertyOp22
 70
     1
102
RTVSPropertyOp23
 70
     1
102
RTVSPropertyOp24
 70
     1
102
RTVSPropertyOp25
 70
     1
102
RTVSPropertyOp26
 70
     1
102
RTVSPropertyOp27
 70
     1
102
RTVSPropertyOp28
 70
     1
102
RTVSPropertyOp29
 70
     1
102
RTVSPropertyOp30
 70
     1
102
RTVSPropertyOp31
 70
     1
102
RTVSPropertyOp32
 70
     1
  0
XRECORD
  5
48D
102
{ACAD_REACTORS
330
48C
102
}
330
48C
100
AcDbXrecord
280
     1
102
RTVSPropertyOp0
 70
     1
102
RTVSPropertyOp1
 70
     1
102
RTVSPropertyOp2
 70
     1
102
RTVSPropertyOp3
 70
     1
102
RTVSPropertyOp4
 70
     1
102
RTVSPropertyOp5
 70
     1
102
RTVSPropertyOp6
 70
     1
102
RTVSPropertyOp7
 70
     1
102
RTVSPropertyOp8
 70
     1
102
RTVSPropertyOp9
 70
     1
102
RTVSPropertyOp10
 70
     1
102
RTVSPropertyOp11
 70
     1
102
RTVSPropertyOp12
 70
     1
102
RTVSPropertyOp13
 70
     1
102
RTVSPropertyOp14
 70
     1
102
RTVSPropertyOp15
 70
     1
102
RTVSPropertyOp16
 70
     1
102
RTVSPropertyOp17
 70
     1
102
RTVSPropertyOp18
 70
     1
102
RTVSPropertyOp19
 70
     1
102
RTVSPropertyOp20
 70
     1
102
RTVSPropertyOp21
 70
     1
102
RTVSPropertyOp22
 70
     1
102
RTVSPropertyOp23
 70
     1
102
RTVSPropertyOp24
 70
     1
102
RTVSPropertyOp25
 70
     1
102
RTVSPropertyOp26
 70
     1
102
RTVSPropertyOp27
 70
     1
102
RTVSPropertyOp28
 70
     1
102
RTVSPropertyOp29
 70
     1
102
RTVSPropertyOp30
 70
     1
102
RTVSPropertyOp31
 70
     1
102
RTVSPropertyOp32
 70
     1
  0
XRECORD
  5
491
102
{ACAD_REACTORS
330
490
102
}
330
490
100
AcDbXrecord
280
     1
102
RTVSPropertyOp0
 70
     1
102
RTVSPropertyOp1
 70
     1
102
RTVSPropertyOp2
 70
     1
102
RTVSPropertyOp3
 70
     1
102
RTVSPropertyOp4
 70
     1
102
RTVSPropertyOp5
 70
     1
102
RTVSPropertyOp6
 70
     1
102
RTVSPropertyOp7
 70
     1
102
RTVSPropertyOp8
 70
     1
102
RTVSPropertyOp9
 70
     1
102
RTVSPropertyOp10
 70
     1
102
RTVSPropertyOp11
 70
     1
102
RTVSPropertyOp12
 70
     1
102
RTVSPropertyOp13
 70
     1
102
RTVSPropertyOp14
 70
     1
102
RTVSPropertyOp15
 70
     1
102
RTVSPropertyOp16
 70
     1
102
RTVSPropertyOp17
 70
     1
102
RTVSPropertyOp18
 70
     1
102
RTVSPropertyOp19
 70
     1
102
RTVSPropertyOp20
 70
     1
102
RTVSPropertyOp21
 70
     1
102
RTVSPropertyOp22
 70
     1
102
RTVSPropertyOp23
 70
     1
102
RTVSPropertyOp24
 70
     1
102
RTVSPropertyOp25
 70
     1
102
RTVSPropertyOp26
 70
     1
102
RTVSPropertyOp27
 70
     1
102
RTVSPropertyOp28
 70
     1
102
RTVSPropertyOp29
 70
     1
102
RTVSPropertyOp30
 70
     1
102
RTVSPropertyOp31
 70
     1
102
RTVSPropertyOp32
 70
     1
  0
XRECORD
  5
4AB
102
{ACAD_REACTORS
330
4AA
102
}
330
4AA
100
AcDbXrecord
280
     1
102
RTVSPropertyOp0
 70
     0
102
RTVSPropertyOp1
 70
     0
102
RTVSPropertyOp2
 70
     0
102
RTVSPropertyOp3
 70
     0
102
RTVSPropertyOp4
 70
     0
102
RTVSPropertyOp5
 70
     0
102
RTVSPropertyOp6
 70
     0
102
RTVSPropertyOp7
 70
     0
102
RTVSPropertyOp8
 70
     0
102
RTVSPropertyOp9
 70
     0
102
RTVSPropertyOp10
 70
     0
102
RTVSPropertyOp11
 70
     0
102
RTVSPropertyOp12
 70
     0
102
RTVSPropertyOp13
 70
     0
102
RTVSPropertyOp14
 70
     2
102
RTVSPropertyOp15
 70
     0
102
RTVSPropertyOp16
 70
     0
102
RTVSPropertyOp17
 70
     0
102
RTVSPropertyOp18
 70
     0
102
RTVSPropertyOp19
 70
     0
102
RTVSPropertyOp20
 70
     0
102
RTVSPropertyOp21
 70
     0
102
RTVSPropertyOp22
 70
     0
102
RTVSPropertyOp23
 70
     0
102
RTVSPropertyOp24
 70
     0
102
RTVSPropertyOp25
 70
     0
102
RTVSPropertyOp26
 70
     0
102
RTVSPropertyOp27
 70
     0
102
RTVSPropertyOp28
 70
     0
102
RTVSPropertyOp29
 70
     0
102
RTVSPropertyOp30
 70
     0
102
RTVSPropertyOp31
 70
     0
102
RTVSPropertyOp32
 70
     0
  0
XRECORD
  5
499
102
{ACAD_REACTORS
330
498
102
}
330
498
100
AcDbXrecord
280
     1
102
RTVSPropertyOp0
 70
     1
102
RTVSPropertyOp1
 70
     1
102
RTVSPropertyOp2
 70
     1
102
RTVSPropertyOp3
 70
     1
102
RTVSPropertyOp4
 70
     1
102
RTVSPropertyOp5
 70
     1
102
RTVSPropertyOp6
 70
     1
102
RTVSPropertyOp7
 70
     1
102
RTVSPropertyOp8
 70
     1
102
RTVSPropertyOp9
 70
     1
102
RTVSPropertyOp10
 70
     1
102
RTVSPropertyOp11
 70
     1
102
RTVSPropertyOp12
 70
     1
102
RTVSPropertyOp13
 70
     1
102
RTVSPropertyOp14
 70
     1
102
RTVSPropertyOp15
 70
     1
102
RTVSPropertyOp16
 70
     1
102
RTVSPropertyOp17
 70
     1
102
RTVSPropertyOp18
 70
     1
102
RTVSPropertyOp19
 70
     1
102
RTVSPropertyOp20
 70
     1
102
RTVSPropertyOp21
 70
     1
102
RTVSPropertyOp22
 70
     1
102
RTVSPropertyOp23
 70
     1
102
RTVSPropertyOp24
 70
     1
102
RTVSPropertyOp25
 70
     1
102
RTVSPropertyOp26
 70
     1
102
RTVSPropertyOp27
 70
     1
102
RTVSPropertyOp28
 70
     1
102
RTVSPropertyOp29
 70
     1
102
RTVSPropertyOp30
 70
     1
102
RTVSPropertyOp31
 70
     1
102
RTVSPropertyOp32
 70
     1
  0
XRECORD
  5
47D
102
{ACAD_REACTORS
330
47C
102
}
330
47C
100
AcDbXrecord
280
     1
102
RTVSPropertyOp0
 70
     1
102
RTVSPropertyOp1
 70
     1
102
RTVSPropertyOp2
 70
     1
102
RTVSPropertyOp3
 70
     1
102
RTVSPropertyOp4
 70
     1
102
RTVSPropertyOp5
 70
     1
102
RTVSPropertyOp6
 70
     1
102
RTVSPropertyOp7
 70
     1
102
RTVSPropertyOp8
 70
     1
102
RTVSPropertyOp9
 70
     1
102
RTVSPropertyOp10
 70
     1
102
RTVSPropertyOp11
 70
     1
102
RTVSPropertyOp12
 70
     1
102
RTVSPropertyOp13
 70
     1
102
RTVSPropertyOp14
 70
     1
102
RTVSPropertyOp15
 70
     1
102
RTVSPropertyOp16
 70
     1
102
RTVSPropertyOp17
 70
     1
102
RTVSPropertyOp18
 70
     1
102
RTVSPropertyOp19
 70
     1
102
RTVSPropertyOp20
 70
     1
102
RTVSPropertyOp21
 70
     1
102
RTVSPropertyOp22
 70
     1
102
RTVSPropertyOp23
 70
     1
102
RTVSPropertyOp24
 70
     1
102
RTVSPropertyOp25
 70
     1
102
RTVSPropertyOp26
 70
     1
102
RTVSPropertyOp27
 70
     1
102
RTVSPropertyOp28
 70
     1
102
RTVSPropertyOp29
 70
     1
102
RTVSPropertyOp30
 70
     1
102
RTVSPropertyOp31
 70
     1
102
RTVSPropertyOp32
 70
     1
  0
XRECORD
  5
47F
102
{ACAD_REACTORS
330
47E
102
}
330
47E
100
AcDbXrecord
280
     1
102
RTVSPropertyOp0
 70
     1
102
RTVSPropertyOp1
 70
     1
102
RTVSPropertyOp2
 70
     1
102
RTVSPropertyOp3
 70
     1
102
RTVSPropertyOp4
 70
     1
102
RTVSPropertyOp5
 70
     1
102
RTVSPropertyOp6
 70
     1
102
RTVSPropertyOp7
 70
     1
102
RTVSPropertyOp8
 70
     1
102
RTVSPropertyOp9
 70
     1
102
RTVSPropertyOp10
 70
     1
102
RTVSPropertyOp11
 70
     1
102
RTVSPropertyOp12
 70
     1
102
RTVSPropertyOp13
 70
     1
102
RTVSPropertyOp14
 70
     1
102
RTVSPropertyOp15
 70
     1
102
RTVSPropertyOp16
 70
     1
102
RTVSPropertyOp17
 70
     1
102
RTVSPropertyOp18
 70
     1
102
RTVSPropertyOp19
 70
     1
102
RTVSPropertyOp20
 70
     1
102
RTVSPropertyOp21
 70
     1
102
RTVSPropertyOp22
 70
     1
102
RTVSPropertyOp23
 70
     1
102
RTVSPropertyOp24
 70
     1
102
RTVSPropertyOp25
 70
     1
102
RTVSPropertyOp26
 70
     1
102
RTVSPropertyOp27
 70
     1
102
RTVSPropertyOp28
 70
     1
102
RTVSPropertyOp29
 70
     1
102
RTVSPropertyOp30
 70
     1
102
RTVSPropertyOp31
 70
     1
102
RTVSPropertyOp32
 70
     1
  0
XRECORD
  5
481
102
{ACAD_REACTORS
330
480
102
}
330
480
100
AcDbXrecord
280
     1
102
RTVSPropertyOp0
 70
     1
102
RTVSPropertyOp1
 70
     1
102
RTVSPropertyOp2
 70
     1
102
RTVSPropertyOp3
 70
     1
102
RTVSPropertyOp4
 70
     1
102
RTVSPropertyOp5
 70
     1
102
RTVSPropertyOp6
 70
     1
102
RTVSPropertyOp7
 70
     1
102
RTVSPropertyOp8
 70
     1
102
RTVSPropertyOp9
 70
     1
102
RTVSPropertyOp10
 70
     1
102
RTVSPropertyOp11
 70
     1
102
RTVSPropertyOp12
 70
     1
102
RTVSPropertyOp13
 70
     1
102
RTVSPropertyOp14
 70
     1
102
RTVSPropertyOp15
 70
     1
102
RTVSPropertyOp16
 70
     1
102
RTVSPropertyOp17
 70
     1
102
RTVSPropertyOp18
 70
     1
102
RTVSPropertyOp19
 70
     1
102
RTVSPropertyOp20
 70
     1
102
RTVSPropertyOp21
 70
     1
102
RTVSPropertyOp22
 70
     1
102
RTVSPropertyOp23
 70
     1
102
RTVSPropertyOp24
 70
     1
102
RTVSPropertyOp25
 70
     1
102
RTVSPropertyOp26
 70
     1
102
RTVSPropertyOp27
 70
     1
102
RTVSPropertyOp28
 70
     1
102
RTVSPropertyOp29
 70
     1
102
RTVSPropertyOp30
 70
     1
102
RTVSPropertyOp31
 70
     1
102
RTVSPropertyOp32
 70
     1
  0
XRECORD
  5
483
102
{ACAD_REACTORS
330
482
102
}
330
482
100
AcDbXrecord
280
     1
102
RTVSPropertyOp0
 70
     1
102
RTVSPropertyOp1
 70
     1
102
RTVSPropertyOp2
 70
     1
102
RTVSPropertyOp3
 70
     1
102
RTVSPropertyOp4
 70
     1
102
RTVSPropertyOp5
 70
     1
102
RTVSPropertyOp6
 70
     1
102
RTVSPropertyOp7
 70
     1
102
RTVSPropertyOp8
 70
     1
102
RTVSPropertyOp9
 70
     1
102
RTVSPropertyOp10
 70
     1
102
RTVSPropertyOp11
 70
     1
102
RTVSPropertyOp12
 70
     1
102
RTVSPropertyOp13
 70
     1
102
RTVSPropertyOp14
 70
     1
102
RTVSPropertyOp15
 70
     1
102
RTVSPropertyOp16
 70
     1
102
RTVSPropertyOp17
 70
     1
102
RTVSPropertyOp18
 70
     1
102
RTVSPropertyOp19
 70
     1
102
RTVSPropertyOp20
 70
     1
102
RTVSPropertyOp21
 70
     1
102
RTVSPropertyOp22
 70
     1
102
RTVSPropertyOp23
 70
     1
102
RTVSPropertyOp24
 70
     1
102
RTVSPropertyOp25
 70
     1
102
RTVSPropertyOp26
 70
     1
102
RTVSPropertyOp27
 70
     1
102
RTVSPropertyOp28
 70
     1
102
RTVSPropertyOp29
 70
     1
102
RTVSPropertyOp30
 70
     1
102
RTVSPropertyOp31
 70
     1
102
RTVSPropertyOp32
 70
     1
  0
XRECORD
  5
48B
102
{ACAD_REACTORS
330
48A
102
}
330
48A
100
AcDbXrecord
280
     1
102
RTVSPropertyOp0
 70
     1
102
RTVSPropertyOp1
 70
     1
102
RTVSPropertyOp2
 70
     1
102
RTVSPropertyOp3
 70
     1
102
RTVSPropertyOp4
 70
     1
102
RTVSPropertyOp5
 70
     1
102
RTVSPropertyOp6
 70
     1
102
RTVSPropertyOp7
 70
     1
102
RTVSPropertyOp8
 70
     1
102
RTVSPropertyOp9
 70
     1
102
RTVSPropertyOp10
 70
     1
102
RTVSPropertyOp11
 70
     1
102
RTVSPropertyOp12
 70
     1
102
RTVSPropertyOp13
 70
     1
102
RTVSPropertyOp14
 70
     1
102
RTVSPropertyOp15
 70
     1
102
RTVSPropertyOp16
 70
     1
102
RTVSPropertyOp17
 70
     1
102
RTVSPropertyOp18
 70
     1
102
RTVSPropertyOp19
 70
     1
102
RTVSPropertyOp20
 70
     1
102
RTVSPropertyOp21
 70
     1
102
RTVSPropertyOp22
 70
     1
102
RTVSPropertyOp23
 70
     1
102
RTVSPropertyOp24
 70
     1
102
RTVSPropertyOp25
 70
     1
102
RTVSPropertyOp26
 70
     1
102
RTVSPropertyOp27
 70
     1
102
RTVSPropertyOp28
 70
     1
102
RTVSPropertyOp29
 70
     1
102
RTVSPropertyOp30
 70
     1
102
RTVSPropertyOp31
 70
     1
102
RTVSPropertyOp32
 70
     1
  0
XRECORD
  5
4A7
102
{ACAD_REACTORS
330
4A6
102
}
330
4A6
100
AcDbXrecord
280
     1
102
RTVSPropertyOp0
 70
     0
102
RTVSPropertyOp1
 70
     0
102
RTVSPropertyOp2
 70
     0
102
RTVSPropertyOp3
 70
     0
102
RTVSPropertyOp4
 70
     0
102
RTVSPropertyOp5
 70
     0
102
RTVSPropertyOp6
 70
     0
102
RTVSPropertyOp7
 70
     0
102
RTVSPropertyOp8
 70
     0
102
RTVSPropertyOp9
 70
     0
102
RTVSPropertyOp10
 70
     0
102
RTVSPropertyOp11
 70
     0
102
RTVSPropertyOp12
 70
     0
102
RTVSPropertyOp13
 70
     0
102
RTVSPropertyOp14
 70
     2
102
RTVSPropertyOp15
 70
     0
102
RTVSPropertyOp16
 70
     0
102
RTVSPropertyOp17
 70
     0
102
RTVSPropertyOp18
 70
     0
102
RTVSPropertyOp19
 70
     0
102
RTVSPropertyOp20
 70
     0
102
RTVSPropertyOp21
 70
     0
102
RTVSPropertyOp22
 70
     0
102
RTVSPropertyOp23
 70
     0
102
RTVSPropertyOp24
 70
     0
102
RTVSPropertyOp25
 70
     0
102
RTVSPropertyOp26
 70
     0
102
RTVSPropertyOp27
 70
     0
102
RTVSPropertyOp28
 70
     0
102
RTVSPropertyOp29
 70
     0
102
RTVSPropertyOp30
 70
     0
102
RTVSPropertyOp31
 70
     0
102
RTVSPropertyOp32
 70
     0
  0
XRECORD
  5
497
102
{ACAD_REACTORS
330
496
102
}
330
496
100
AcDbXrecord
280
     1
102
RTVSPropertyOp0
 70
     1
102
RTVSPropertyOp1
 70
     1
102
RTVSPropertyOp2
 70
     1
102
RTVSPropertyOp3
 70
     1
102
RTVSPropertyOp4
 70
     1
102
RTVSPropertyOp5
 70
     1
102
RTVSPropertyOp6
 70
     1
102
RTVSPropertyOp7
 70
     1
102
RTVSPropertyOp8
 70
     1
102
RTVSPropertyOp9
 70
     1
102
RTVSPropertyOp10
 70
     1
102
RTVSPropertyOp11
 70
     1
102
RTVSPropertyOp12
 70
     1
102
RTVSPropertyOp13
 70
     1
102
RTVSPropertyOp14
 70
     1
102
RTVSPropertyOp15
 70
     1
102
RTVSPropertyOp16
 70
     1
102
RTVSPropertyOp17
 70
     1
102
RTVSPropertyOp18
 70
     1
102
RTVSPropertyOp19
 70
     1
102
RTVSPropertyOp20
 70
     1
102
RTVSPropertyOp21
 70
     1
102
RTVSPropertyOp22
 70
     1
102
RTVSPropertyOp23
 70
     1
102
RTVSPropertyOp24
 70
     1
102
RTVSPropertyOp25
 70
     1
102
RTVSPropertyOp26
 70
     1
102
RTVSPropertyOp27
 70
     1
102
RTVSPropertyOp28
 70
     1
102
RTVSPropertyOp29
 70
     1
102
RTVSPropertyOp30
 70
     1
102
RTVSPropertyOp31
 70
     1
102
RTVSPropertyOp32
 70
     1
  0
XRECORD
  5
4A9
102
{ACAD_REACTORS
330
4A8
102
}
330
4A8
100
AcDbXrecord
280
     1
102
RTVSPropertyOp0
 70
     0
102
RTVSPropertyOp1
 70
     0
102
RTVSPropertyOp2
 70
     0
102
RTVSPropertyOp3
 70
     0
102
RTVSPropertyOp4
 70
     0
102
RTVSPropertyOp5
 70
     0
102
RTVSPropertyOp6
 70
     0
102
RTVSPropertyOp7
 70
     0
102
RTVSPropertyOp8
 70
     0
102
RTVSPropertyOp9
 70
     0
102
RTVSPropertyOp10
 70
     0
102
RTVSPropertyOp11
 70
     0
102
RTVSPropertyOp12
 70
     0
102
RTVSPropertyOp13
 70
     0
102
RTVSPropertyOp14
 70
     2
102
RTVSPropertyOp15
 70
     0
102
RTVSPropertyOp16
 70
     0
102
RTVSPropertyOp17
 70
     0
102
RTVSPropertyOp18
 70
     0
102
RTVSPropertyOp19
 70
     0
102
RTVSPropertyOp20
 70
     0
102
RTVSPropertyOp21
 70
     0
102
RTVSPropertyOp22
 70
     0
102
RTVSPropertyOp23
 70
     0
102
RTVSPropertyOp24
 70
     0
102
RTVSPropertyOp25
 70
     0
102
RTVSPropertyOp26
 70
     0
102
RTVSPropertyOp27
 70
     0
102
RTVSPropertyOp28
 70
     0
102
RTVSPropertyOp29
 70
     0
102
RTVSPropertyOp30
 70
     0
102
RTVSPropertyOp31
 70
     0
102
RTVSPropertyOp32
 70
     0
  0
XRECORD
  5
48F
102
{ACAD_REACTORS
330
48E
102
}
330
48E
100
AcDbXrecord
280
     1
102
RTVSPropertyOp0
 70
     1
102
RTVSPropertyOp1
 70
     1
102
RTVSPropertyOp2
 70
     1
102
RTVSPropertyOp3
 70
     1
102
RTVSPropertyOp4
 70
     1
102
RTVSPropertyOp5
 70
     1
102
RTVSPropertyOp6
 70
     1
102
RTVSPropertyOp7
 70
     1
102
RTVSPropertyOp8
 70
     1
102
RTVSPropertyOp9
 70
     1
102
RTVSPropertyOp10
 70
     1
102
RTVSPropertyOp11
 70
     1
102
RTVSPropertyOp12
 70
     1
102
RTVSPropertyOp13
 70
     1
102
RTVSPropertyOp14
 70
     1
102
RTVSPropertyOp15
 70
     1
102
RTVSPropertyOp16
 70
     1
102
RTVSPropertyOp17
 70
     1
102
RTVSPropertyOp18
 70
     1
102
RTVSPropertyOp19
 70
     1
102
RTVSPropertyOp20
 70
     1
102
RTVSPropertyOp21
 70
     1
102
RTVSPropertyOp22
 70
     1
102
RTVSPropertyOp23
 70
     1
102
RTVSPropertyOp24
 70
     1
102
RTVSPropertyOp25
 70
     1
102
RTVSPropertyOp26
 70
     1
102
RTVSPropertyOp27
 70
     1
102
RTVSPropertyOp28
 70
     1
102
RTVSPropertyOp29
 70
     1
102
RTVSPropertyOp30
 70
     1
102
RTVSPropertyOp31
 70
     1
102
RTVSPropertyOp32
 70
     1
  0
XRECORD
  5
4A5
102
{ACAD_REACTORS
330
4A4
102
}
330
4A4
100
AcDbXrecord
280
     1
102
RTVSPropertyOp0
 70
     1
102
RTVSPropertyOp1
 70
     1
102
RTVSPropertyOp2
 70
     1
102
RTVSPropertyOp3
 70
     1
102
RTVSPropertyOp4
 70
     1
102
RTVSPropertyOp5
 70
     1
102
RTVSPropertyOp6
 70
     1
102
RTVSPropertyOp7
 70
     1
102
RTVSPropertyOp8
 70
     1
102
RTVSPropertyOp9
 70
     1
102
RTVSPropertyOp10
 70
     1
102
RTVSPropertyOp11
 70
     1
102
RTVSPropertyOp12
 70
     1
102
RTVSPropertyOp13
 70
     1
102
RTVSPropertyOp14
 70
     1
102
RTVSPropertyOp15
 70
     1
102
RTVSPropertyOp16
 70
     1
102
RTVSPropertyOp17
 70
     1
102
RTVSPropertyOp18
 70
     1
102
RTVSPropertyOp19
 70
     1
102
RTVSPropertyOp20
 70
     1
102
RTVSPropertyOp21
 70
     1
102
RTVSPropertyOp22
 70
     1
102
RTVSPropertyOp23
 70
     1
102
RTVSPropertyOp24
 70
     1
102
RTVSPropertyOp25
 70
     1
102
RTVSPropertyOp26
 70
     1
102
RTVSPropertyOp27
 70
     1
102
RTVSPropertyOp28
 70
     1
102
RTVSPropertyOp29
 70
     1
102
RTVSPropertyOp30
 70
     1
102
RTVSPropertyOp31
 70
     1
102
RTVSPropertyOp32
 70
     1
  0
XRECORD
  5
4A3
102
{ACAD_REACTORS
330
4A2
102
}
330
4A2
100
AcDbXrecord
280
     1
102
RTVSPropertyOp0
 70
     1
102
RTVSPropertyOp1
 70
     1
102
RTVSPropertyOp2
 70
     1
102
RTVSPropertyOp3
 70
     1
102
RTVSPropertyOp4
 70
     1
102
RTVSPropertyOp5
 70
     1
102
RTVSPropertyOp6
 70
     1
102
RTVSPropertyOp7
 70
     1
102
RTVSPropertyOp8
 70
     1
102
RTVSPropertyOp9
 70
     1
102
RTVSPropertyOp10
 70
     1
102
RTVSPropertyOp11
 70
     1
102
RTVSPropertyOp12
 70
     1
102
RTVSPropertyOp13
 70
     1
102
RTVSPropertyOp14
 70
     1
102
RTVSPropertyOp15
 70
     1
102
RTVSPropertyOp16
 70
     1
102
RTVSPropertyOp17
 70
     1
102
RTVSPropertyOp18
 70
     1
102
RTVSPropertyOp19
 70
     1
102
RTVSPropertyOp20
 70
     1
102
RTVSPropertyOp21
 70
     1
102
RTVSPropertyOp22
 70
     1
102
RTVSPropertyOp23
 70
     1
102
RTVSPropertyOp24
 70
     1
102
RTVSPropertyOp25
 70
     1
102
RTVSPropertyOp26
 70
     1
102
RTVSPropertyOp27
 70
     1
102
RTVSPropertyOp28
 70
     1
102
RTVSPropertyOp29
 70
     1
102
RTVSPropertyOp30
 70
     1
102
RTVSPropertyOp31
 70
     1
102
RTVSPropertyOp32
 70
     1
  0
XRECORD
  5
49D
102
{ACAD_REACTORS
330
49C
102
}
330
49C
100
AcDbXrecord
280
     1
102
RTVSPropertyOp0
 70
     1
102
RTVSPropertyOp1
 70
     1
102
RTVSPropertyOp2
 70
     1
102
RTVSPropertyOp3
 70
     1
102
RTVSPropertyOp4
 70
     1
102
RTVSPropertyOp5
 70
     1
102
RTVSPropertyOp6
 70
     1
102
RTVSPropertyOp7
 70
     1
102
RTVSPropertyOp8
 70
     1
102
RTVSPropertyOp9
 70
     1
102
RTVSPropertyOp10
 70
     1
102
RTVSPropertyOp11
 70
     1
102
RTVSPropertyOp12
 70
     1
102
RTVSPropertyOp13
 70
     1
102
RTVSPropertyOp14
 70
     1
102
RTVSPropertyOp15
 70
     1
102
RTVSPropertyOp16
 70
     1
102
RTVSPropertyOp17
 70
     1
102
RTVSPropertyOp18
 70
     1
102
RTVSPropertyOp19
 70
     1
102
RTVSPropertyOp20
 70
     1
102
RTVSPropertyOp21
 70
     1
102
RTVSPropertyOp22
 70
     1
102
RTVSPropertyOp23
 70
     1
102
RTVSPropertyOp24
 70
     1
102
RTVSPropertyOp25
 70
     1
102
RTVSPropertyOp26
 70
     1
102
RTVSPropertyOp27
 70
     1
102
RTVSPropertyOp28
 70
     1
102
RTVSPropertyOp29
 70
     1
102
RTVSPropertyOp30
 70
     1
102
RTVSPropertyOp31
 70
     1
102
RTVSPropertyOp32
 70
     1
  0
XRECORD
  5
49F
102
{ACAD_REACTORS
330
49E
102
}
330
49E
100
AcDbXrecord
280
     1
102
RTVSPropertyOp0
 70
     1
102
RTVSPropertyOp1
 70
     1
102
RTVSPropertyOp2
 70
     1
102
RTVSPropertyOp3
 70
     1
102
RTVSPropertyOp4
 70
     1
102
RTVSPropertyOp5
 70
     1
102
RTVSPropertyOp6
 70
     1
102
RTVSPropertyOp7
 70
     1
102
RTVSPropertyOp8
 70
     1
102
RTVSPropertyOp9
 70
     1
102
RTVSPropertyOp10
 70
     1
102
RTVSPropertyOp11
 70
     1
102
RTVSPropertyOp12
 70
     1
102
RTVSPropertyOp13
 70
     1
102
RTVSPropertyOp14
 70
     1
102
RTVSPropertyOp15
 70
     1
102
RTVSPropertyOp16
 70
     1
102
RTVSPropertyOp17
 70
     1
102
RTVSPropertyOp18
 70
     1
102
RTVSPropertyOp19
 70
     1
102
RTVSPropertyOp20
 70
     1
102
RTVSPropertyOp21
 70
     1
102
RTVSPropertyOp22
 70
     1
102
RTVSPropertyOp23
 70
     1
102
RTVSPropertyOp24
 70
     1
102
RTVSPropertyOp25
 70
     1
102
RTVSPropertyOp26
 70
     1
102
RTVSPropertyOp27
 70
     1
102
RTVSPropertyOp28
 70
     1
102
RTVSPropertyOp29
 70
     1
102
RTVSPropertyOp30
 70
     1
102
RTVSPropertyOp31
 70
     1
102
RTVSPropertyOp32
 70
     1
  0
XRECORD
  5
495
102
{ACAD_REACTORS
330
494
102
}
330
494
100
AcDbXrecord
280
     1
102
RTVSPropertyOp0
 70
     1
102
RTVSPropertyOp1
 70
     1
102
RTVSPropertyOp2
 70
     1
102
RTVSPropertyOp3
 70
     1
102
RTVSPropertyOp4
 70
     1
102
RTVSPropertyOp5
 70
     1
102
RTVSPropertyOp6
 70
     1
102
RTVSPropertyOp7
 70
     1
102
RTVSPropertyOp8
 70
     1
102
RTVSPropertyOp9
 70
     1
102
RTVSPropertyOp10
 70
     1
102
RTVSPropertyOp11
 70
     1
102
RTVSPropertyOp12
 70
     1
102
RTVSPropertyOp13
 70
     1
102
RTVSPropertyOp14
 70
     1
102
RTVSPropertyOp15
 70
     1
102
RTVSPropertyOp16
 70
     1
102
RTVSPropertyOp17
 70
     1
102
RTVSPropertyOp18
 70
     1
102
RTVSPropertyOp19
 70
     1
102
RTVSPropertyOp20
 70
     1
102
RTVSPropertyOp21
 70
     1
102
RTVSPropertyOp22
 70
     1
102
RTVSPropertyOp23
 70
     1
102
RTVSPropertyOp24
 70
     1
102
RTVSPropertyOp25
 70
     1
102
RTVSPropertyOp26
 70
     1
102
RTVSPropertyOp27
 70
     1
102
RTVSPropertyOp28
 70
     1
102
RTVSPropertyOp29
 70
     1
102
RTVSPropertyOp30
 70
     1
102
RTVSPropertyOp31
 70
     1
102
RTVSPropertyOp32
 70
     1
  0
XRECORD
  5
489
102
{ACAD_REACTORS
330
488
102
}
330
488
100
AcDbXrecord
280
     1
102
RTVSPropertyOp0
 70
     1
102
RTVSPropertyOp1
 70
     1
102
RTVSPropertyOp2
 70
     1
102
RTVSPropertyOp3
 70
     1
102
RTVSPropertyOp4
 70
     1
102
RTVSPropertyOp5
 70
     1
102
RTVSPropertyOp6
 70
     1
102
RTVSPropertyOp7
 70
     1
102
RTVSPropertyOp8
 70
     1
102
RTVSPropertyOp9
 70
     1
102
RTVSPropertyOp10
 70
     1
102
RTVSPropertyOp11
 70
     1
102
RTVSPropertyOp12
 70
     1
102
RTVSPropertyOp13
 70
     1
102
RTVSPropertyOp14
 70
     1
102
RTVSPropertyOp15
 70
     1
102
RTVSPropertyOp16
 70
     1
102
RTVSPropertyOp17
 70
     1
102
RTVSPropertyOp18
 70
     1
102
RTVSPropertyOp19
 70
     1
102
RTVSPropertyOp20
 70
     1
102
RTVSPropertyOp21
 70
     1
102
RTVSPropertyOp22
 70
     1
102
RTVSPropertyOp23
 70
     1
102
RTVSPropertyOp24
 70
     1
102
RTVSPropertyOp25
 70
     1
102
RTVSPropertyOp26
 70
     1
102
RTVSPropertyOp27
 70
     1
102
RTVSPropertyOp28
 70
     1
102
RTVSPropertyOp29
 70
     1
102
RTVSPropertyOp30
 70
     1
102
RTVSPropertyOp31
 70
     1
102
RTVSPropertyOp32
 70
     1
  0
XRECORD
  5
4A1
102
{ACAD_REACTORS
330
4A0
102
}
330
4A0
100
AcDbXrecord
280
     1
102
RTVSPropertyOp0
 70
     1
102
RTVSPropertyOp1
 70
     1
102
RTVSPropertyOp2
 70
     1
102
RTVSPropertyOp3
 70
     1
102
RTVSPropertyOp4
 70
     1
102
RTVSPropertyOp5
 70
     1
102
RTVSPropertyOp6
 70
     1
102
RTVSPropertyOp7
 70
     1
102
RTVSPropertyOp8
 70
     1
102
RTVSPropertyOp9
 70
     1
102
RTVSPropertyOp10
 70
     1
102
RTVSPropertyOp11
 70
     1
102
RTVSPropertyOp12
 70
     1
102
RTVSPropertyOp13
 70
     1
102
RTVSPropertyOp14
 70
     1
102
RTVSPropertyOp15
 70
     1
102
RTVSPropertyOp16
 70
     1
102
RTVSPropertyOp17
 70
     1
102
RTVSPropertyOp18
 70
     1
102
RTVSPropertyOp19
 70
     1
102
RTVSPropertyOp20
 70
     1
102
RTVSPropertyOp21
 70
     1
102
RTVSPropertyOp22
 70
     1
102
RTVSPropertyOp23
 70
     1
102
RTVSPropertyOp24
 70
     1
102
RTVSPropertyOp25
 70
     1
102
RTVSPropertyOp26
 70
     1
102
RTVSPropertyOp27
 70
     1
102
RTVSPropertyOp28
 70
     1
102
RTVSPropertyOp29
 70
     1
102
RTVSPropertyOp30
 70
     1
102
RTVSPropertyOp31
 70
     1
102
RTVSPropertyOp32
 70
     1
  0
ENDSEC
  0
EOF
